Oops, an error
Loading. Please wait.

Under The Whip Tab

version 1
version 1

Whole song

Interactive

469 views 1 this week
no commentswrite comment
1 2 3 4 5
please rate
add to favorites
launch autoscroll
font size
0
reset
how to read this tab
guitar tuner
Tab Pro tools
  • play this tab
  • loop segment
  • change instrument
  • show fretboard
  • metronome
Autoscroll
slow
fast
+/-
esc
set tempo
stop
Contributor
Band : The Crown
Song : Under The Whip
Album : Crowned in Terror
      / Crowned Unholy

Tabber : Happa


Intro
--------------|
--------------|
--------------|
---5-4--------|
---3-2--5-4---|
--------3-2---|


Bridge 1                                    x 4         x 1
---------------------------------------|----------|------------|
---------------------------------------|----------|------------|
---------------------------------------|----------|------------|
---------------------------------------|--2-------|--5-4-------|
---45--45--45--45--45--45--45--45--45--|--0---45--|--3-2--5-4--|
--023-023-023-023-023-023-023-023-023--|-----023--|-------3-2--|


Bridge 2
-----------------------|
-----------------------|
-----------------------|  x 4
---------------3-------|
--222-222-222--1--222--|
--000-000-000-----000--|


Verse                                      x 3         x 1
---------------------------------------|----------|------------|
---------------------------------------|----------|------------|
---------------------------------------|----------|------------|
---------------------------------------|--2-------|--5-4-------|
---45--45--45--45--45--45--45--45--45--|--0---45--|--3-2--5-4--|
--023-023-023-023-023-023-023-023-023--|-----023--|-------3-2--|


Chorus
Gtr 1
--------------------------|
--------------------------|
--------------------------| x 4
--2~----------------------|
--2~---------10-10-10-10--|
--0~---------8--8--8--8---|
             .  .  .  .   <--- As many times as needed.

(2:nd and 4:th time descend on the fretboard)


Chorus tapping
Gtr 2

     x4
--h19p15p12--|--h22p15p12-h20p15p12-h19p15p12-h17p15p12--|
-------------|-------------------------------------------|
-------------|-------------------------------------------|
-------------|-------------------------------------------|
-------------|-------------------------------------------|
-------------|-------------------------------------------|

--0h7h12-0h5h10-0h7h12-0h5h10-0h7h12-0-----|
-------------------------------------------|
-------------------------------------------|
-------------------------------------------|
-------------------------------------------|
-------------------------------------------|

End chorus on:

-----
-----
-----
--2--
--2--
--0--
  pm

Verse 2                                     x 3         x 1
---------------------------------------|----------|------------|
---------------------------------------|----------|------------|
---------------------------------------|----------|------------|
---------------------------------------|--2-------|--5-4-------|
---45--45--45--45--45--45--45--45--45--|--0---45--|--3-2--5-4--|
--023-023-023-023-023-023-023-023-023--|-----023--|-------3-2--|


Bridge 2
-----------------------|
-----------------------|
-----------------------|  x 4
---------------3-------|
--222-222-222--1--222--|
--000-000-000-----000--|

(Chorus)

Riff 1
Gtr 1
-----------------------------------------|
-----------------------------------------|
-----------------------------------------|  x 4
--/--9999999999999999--7777777777777777--|
--/--7777777777777777--5555555555555555--|
-----------------------------------------|


Gtr 2
--12121212121212121212121212121212--|   (12's)
--12121212121212121212121212121212--|
------------------------------------|   1:st, 3:rd
------------------------------------|
------------------------------------|
------------------------------------|

--10101010101010101010101010101010--|   (10's)
--10101010101010101010101010101010--|
------------------------------------|   2:nd, 4:th
------------------------------------|
------------------------------------|
------------------------------------|


Riff 2                      1:st    2:nd
                            3:rd    4:th
--------------------------|-------|-------|
--------------------------|-------|-------|
--------------------------|-------|-------|  x 4
--------------------------|--245--|--247--|
--------2---2--------2----|--023--|--025--|
--0-000---0----0-000---0--|-------|-------|


Back to Riff 1 once again.


Break
----------------|
----------------|
----------------|
--4-4-4---------|
--2-2-2--5-4-5--|
---------3-2-3--|


Verse-like thing
---------------------------------------      ----------|
---------------------------------------      ----------|
--------------------------------------- x 2  ----------|
---------------------------------------      --2-------|
---45--45--45--45--45--45--45--45--45--      --0---45--|
--023-023-023-023-023-023-023-023-023--      -----023--|


Chorus


Bridge 1                                   x 4          x 1
---------------------------------------|----------|------------|
---------------------------------------|----------|------------|
---------------------------------------|----------|------------|
---------------------------------------|--2-------|--5-4-------|
---45--45--45--45--45--45--45--45--45--|--0---45--|--3-2--5-4--|
--023-023-023-023-023-023-023-023-023--|-----023--|-------3-2--|

Bridge 2
-----------------------|
-----------------------|
-----------------------|  x 4
---------------3-------|
--222-222-222--1--222--|
--000-000-000-----000--|


Ending
-----------|
-----------|
-----------|
-----------|
--2-5-4-2--|
--0-3-2-0--|

Structure :

Intro
Bridge 1
Bridge 2
Verse
Chorus
Verse
Bridge 2
Chorus
Riff 1
Riff 2
Riff 1
Break
Verse-like Thing
Chorus
Bridge 1
Bridge 2
Ending

Feel free to contribut with solos !

Enjoy // Happa
comments
We did not receive enough feedback on this tab! Please rate:
print report bad tab
1 2 3 4 5
I want to post or [tab]
guest
You may want to rate the tab now too:
select rating
Please do not post tabs as comments. Select "correction" instead!