Oops, an error
Loading. Please wait.

New Sunrise Chords

22 views 1 this week
no commentswrite comment
1 2 3 4 5
3 more votes to show rating
add to favorites
launch autoscroll
font size
0
reset
transpose
0
reset
simplify chords
display chords
guitar tuner
Autoscroll
slow
fast
+/-
esc
set tempo
stop
Help us to improve Ultimate-Guitar.com Take our survey!
×
Author
Difficulty
novice
THE CUCKOOS----NEW SUNRISE--2016
You can listen to this song on soundcloud if its still up: https://soundcloud.com/the-cuckoos/new-sunrise-1
---------------------------------------------------------------------


This is the synth part that continues throughout most of the song...
[Intro]
 Bsus4#5   D    Esus4#5 Em
e|---7-----7-----12-----12------|
B|---8-----7-----13-----12------|
G|---9-----7-----14-----12------|
D|---9-----9-----14-----14------|
A|---7-----7-----12-------------| or\/
E|------------------------------|
            
 Bsus4#5     D  Esus4#5  Em
e|-----3-----2-----8-----7---|
B|-----5-----3-----10----8---|
G|-----4-----2-----9-----9---|
D|---------------------------|
A|---------------------------|
E|---------------------------|

then the guitar comes in...
e|-------------------------------------------------------------|
B|-----12-----------10----------10----------8------------------|
G|---------12-----------11----------11---------9---------------|
D|-------------14-----------12----------12--------9------------|
A|-------------------------------------------------------------|
E|-------------------------------------------------------------|

e|------------------------------------------------------------------------|
B|--------12-----------10------------------10----------8------------------|
G|------------12-----------11------11----------11---------9---------------|
D|---/14----------14-----------12------12--------------------9------------|
A|------------------------------------------------------------------------|
E|------------------------------------------------------------------------|

these are the chords for the chorus 
(for acoustic just play the top three strings)

     Bmaj  Cmaj   Dmaj Bsus4#5
e|-----7-----8-----10----7---|
B|-----7-----8-----10----8---|
G|-----8-----9-----11----9---|
D|-----9-----10----12----9---|
A|-----9-----10----12----7---|
E|-----7-----9-----10--------|

[Verse] 
Em         Bsus4#5 D Esus4#5    Em   Bsus4#5 D   Esus4#5     Em
    I wake up,                  can't rememeber what's up or down
Em    Bsus4#5 D          Esus4# Em       Bsus4#5 D         Esus4# Em  
         I go for another ciggerette and I look across to my window
 
[Chorus] 
 Bmaj Cmaj Dmaj   Bsus4#5 Bmaj Cmaj      Dmaj Bsus4#5
   I see a pale horizon,   can't remember yesterday 
 Bmaj  Cmaj Dmaj Bsus4#5 Bmaj             Cmaj        Dmaj          Bsus4#5 D  Esus4#5   Em
    I feel so alive when   I wake up in the morning and see a new sun rise
Em   Bsus4#5 D  Esus4#5   Em Bsus4#5 D Esus4#5 Em   Bsus4#5 D  Esus4#5   Em  
    ahh yeah          see a new sun rise               ahh yeah  
Bmaj Cmaj Dmaj Bsus4#5 Bmaj Cmaj      Dmaj Bsus4#5
  I see a pale horizon,   can't remember yesterday
 Bmaj  Cmaj Dmaj Bsus4#5 Bmaj           Cmaj        Dmaj       Bsus4#5 D  Esus4#5   Em
  I feel so alive when   I wake up in the morning and see a new sun rise
Em    Bsus4#5 D   Esus4#5   Em  Bsus4#5 D Esus4#5 Em  Bsus4#5 D  Esus4#5   Em
    ahh yeah           see a new sun rise               ahh yeah                        
             
[Outro]
Bmaj    Cmaj Dmaj Bsus4#5 Bmaj Cmaj Dmaj Bsus4#5 Bmaj  Cmaj Dmaj Bsus4#5 Bmaj Cmaj  
come on baby   you know your making it harder  to   see  the   new    sunrise     baby 
 
[Ending] 
Em Bsus4#5 D    Esus4#5   Em 
(repeat until end of song)
 
************************************

| /  Slide up

************************************
Suggest correction
Give kudos to tab author, rate the tab!
1 2 3 4 5
comments
print report bad tab
guest
You may want to rate the tab now too:
select rating
Wanna post a correction for this tab? Suggest correction