Oops, an error
Loading. Please wait.

A Flower In The Desert Tab

1,884 views 6 this week
2 commentsread comments
1 2 3 4 5
please rate
add to favorites
launch autoscroll
font size
0
reset
how to read this tab
guitar tuner
Tab Pro tools
  • play this tab
  • loop segment
  • change instrument
  • show fretboard
  • metronome
×
Best way to learn
"A Flower In The Desert"
Autoscroll
slow
fast
+/-
esc
set tempo
stop
Date: Sat, 28 Jun 2003 07:51:05 +0100 (BST)
From: Richie Herbert 
Subject: c/cult/a_flower_in_the_desert.tab

'A Flower in the Desert' by the Cult from the 'Dreamtime' album.

Tabbed by Richardos Herbertos aka the celibate_monkey@yahoo.co.uk

This is very mellow indeed. The intro is based around a D minor shape and then moves up
to an A minor postion.

The D minor bit. 

E |-------|-------|---1---|---0---|---1---|-------|---1---| 
B |-------|---3---|-------|-------|-------|---3---|-------|
G |---2---|-------|-------|-------|-------|-------|-------|
D |-------|-------|-------|-------|-------|-------|-------|
A |-------|-------|-------|-------|-------|-------|-------|
E |-------|-------|-------|-------|-------|-------|-------|

E |-------|-------|---1---|---0---|---1---|-------|---1---| 
B |-------|---3---|-------|-------|-------|---3---|-------|
G |---3---|-------|-------|-------|-------|-------|-------|
D |-------|-------|-------|-------|-------|-------|-------|
A |-------|-------|-------|-------|-------|-------|-------|
E |-------|-------|-------|-------|-------|-------|-------|

E |-------|-------|---1---|---0---|---1---|-------|---1---| 
B |-------|---3---|-------|-------|-------|---3---|-------|
G |---4---|-------|-------|-------|-------|-------|-------|
D |-------|-------|-------|-------|-------|-------|-------|
A |-------|-------|-------|-------|-------|-------|-------|
E |-------|-------|-------|-------|-------|-------|-------|

E |-------|-------|---1---|---0---|---1---|-------|---1---| 
B |-------|---3---|-------|-------|-------|---3---|-------|
G |---3---|-------|-------|-------|-------|-------|-------|
D |-------|-------|-------|-------|-------|-------|-------|
A |-------|-------|-------|-------|-------|-------|-------|
E |-------|-------|-------|-------|-------|-------|-------|

Then play the A minor bit

E |-------|-------|-------|-------|-------|-------|-------| 
B |-------|-------|---1---|---0---|---1---|-------|---1---|
G |-------|---2---|-------|-------|-------|---2---|-------|
D |---2---|-------|-------|-------|-------|-------|-------|
A |-------|-------|-------|-------|-------|-------|-------|
E |-------|-------|-------|-------|-------|-------|-------|

E |-------|-------|-------|-------|-------|-------|-------| 
B |-------|-------|---1---|---0---|---1---|-------|---1---|
G |-------|---2---|-------|-------|-------|---2---|-------|
D |---3---|-------|-------|-------|-------|-------|-------|
A |-------|-------|-------|-------|-------|-------|-------|
E |-------|-------|-------|-------|-------|-------|-------|

E |-------|-------|-------|-------|-------|-------|-------| 
B |-------|-------|---1---|---0---|---1---|-------|---1---|
G |-------|---2---|-------|-------|-------|---2---|-------|
D |---4---|-------|-------|-------|-------|-------|-------|
A |-------|-------|-------|-------|-------|-------|-------|
E |-------|-------|-------|-------|-------|-------|-------|

E |-------|-------|-------|-------|-------|-------|-------| 
B |-------|-------|---1---|---0---|---1---|-------|---1---|
G |-------|---2---|-------|-------|-------|---2---|-------|
D |---3---|-------|-------|-------|-------|-------|-------|
A |-------|-------|-------|-------|-------|-------|-------|
E |-------|-------|-------|-------|-------|-------|-------|


Then througout the song strum along on an Am and an open Bm

Am              x02210
Bm              x04430
Bm add 7        x04435

For example ....

Am

Wait a minute my friend ..............

Bm                                      Bm add 7

Don't pass me out for dead ...........

Comprendez?

There is a heavy (as heavy as this little ditty can get get) bit somewhere involving an
open Am shape moving on up the fret board, but I can't remember it off the top of my head. Sorry.
comments
We did not receive enough feedback on this tab! Please rate:
print report bad tab
1 2 3 4 5
2 comments total.
0 reply
duckec01 wrote on April 16 2014, 04:13 am

Good tab. I think the heavy bit is something like this. Sorry about the tab set out. This is the first time i've done one.

E-------------8--8--8--8--8--8--
B-10-10-10----10-10-10-10-10-10-
G 9--9--9-----9--9--9--9--9--9
D-7--7--7---------------------

0 reply
ivalaalien wrote on March 28 2015, 11:04 am, edited at 11:05 am

i think the chorus is......
Am i`m aliveFsee my ribbons flowingEmDont want to be likeGdont ant to be like youand repeat chords for rest of chorus

I want to post or [tab]
guest
You may want to rate the tab now too:
select rating
Please do not post tabs as comments. Select "correction" instead!