Oops, an error
Loading. Please wait.

Brother Wolf Sister Moon tab

version 2
version 2

Whole song

Interactive

397 views 3 this week
no commentswrite comment
1 2 3 4 5
3 more votes to show rating
add to favorites
×
Save as Personal and add changes to this tab that will be seen only by you. Learn more ›
×
You can save this tab as Personal to edit and correct it or add notes. All changes will be seen only by you. Learn more »
launch autoscroll
font size
0
reset
how to read this tab
guitar tuner
edit
Autoscroll
slow
fast
+/-
esc
set tempo
stop
The Cult - Brother Wolf, Sister Moon [From the album "Love" (1985)]

There's an acoustic guitar strumming some chords maybe Em G and F# during the verse 
and G Bb and A during the chorus  

Riff

e|-----------------------|---------------------|------------------------|
B|-----------------------|---------------------|------------------------|
G|-----------------------|---------------------|------------------------|
D|--2----2----2----2-----|--0----0----0----0---|--0----0-------0--------|
A|----2----2----2----2---|----2----2----2----2-|----2----2-------0------|
E|-0----0----0----0------|-3----3----3----3----|-3----3----3--2---------|

  Embrace the wind with both arms 
  Stop the clouds dead in the sky 
  Hang your head no more 
  And beg no more
  Brother wolf and sister moon your time as come

For the chorus play:

e|----------------------|--------------------------------|
B|----------------------|--------------------------------|
G|----------------------|--------------------------------|
D|----0-----0-----0-----|----0-----0------0----0---------|
A|------2-----2-----2---|------5-----5------4----4-------|
E|--3-----3-----3-----3-|-6------6------5------5---------|

  And the wind will blow my fears away 
  Will dry my tears away and dry my tears away 
  Will blow my fears away

-Drums kick in

Repeat lyrics

Solo

e|--12----------------------------------------------------|
B|------15---------------12-------------------------------|
G|---------14b--14br--12------------------11----11-12-----|
D|--------------------------14~~--14~~-14----14-----------|
A|--------------------------------------------------------|
E|--------------------------------------------------------|


e|--------------------------------------------------------|
B|------------------------------------------------17-17~~-|
G|--12-14-14br-12-14-14br-----12--------12-14-/19---------|
D|-------------------------12----14~-/14------------------|
A|--------------------------------------------------------|
E|--------------------------------------------------------|

              |-----x2----------|
e|--------------------------------------------------------|
B|--17-15-------------------------------------------------|
G|---------14b--preb14-14-preb14r-----14-16---------------|
D|---------------------------------17-------14~~----------|
A|--------------------------------------------------------|
E|--------------------------------------------------------|


e|--------------------------------------------------------|
B|------------------17----17~--17-17-17-19-17-19-20~~-----|
G|-------12-14--/19----19---------------------------------|
D|---/14--------------------------------------------------|
A|--------------------------------------------------------|
E|--------------------------------------------------------|

e|--15-17-17br-15-17-17br----15---------------------------|
B|------------------------15----17~~----17~~--------------|
G|--------------------------------------------------------|
D|--------------------------------------------------------|
A|--------------------------------------------------------|
E|--------------------------------------------------------|

repeat the lyrics playing this over the previous riffs till the end 

e|--15-------15-------15------15-------|
B|-----15-------15-------15------15----|
G|--------17-------17-------17------17-|
D|-------------------------------------|
A|-------------------------------------|
E|-------------------------------------|

The solo he plays live: 
it's very similar to the one on the record except it's shorter it's distorted and he tunes 
his guitar 1/2 step down to make it even more like the version he plays live use distorted power chords 
after the drums kick in and in between chords add some evil licks in E pentatonic at the 12th fret

               |----x2----|
e|--12----------------------------------------------------|
B|-----15--15---15--15--15--------------------------------|
G|---------14b--14b-14b-14br------12-14brp(12)------------|
D|-----------------------------14--------------14~~~~\----|
A|--------------------------------------------------------|
E|--------------------------------------------------------|


e|--------------------------------------------------------|
B|-----------------17----17~~-17-19-17-19-20~~------------|
G|-------12-14-/19----19----------------------------------|
D|--/14---------------------------------------------------|
A|--------------------------------------------------------|
E|--------------------------------------------------------|

e|--15-17-17br-17-17brp(15)-17-17brp(15)------------------|
B|----------------------------------------17~~------------|
G|--------------------------------------------------------|
D|--------------------------------------------------------|
A|--------------------------------------------------------|
E|--------------------------------------------------------|

e|----------12--------------------------------------------|
B|-------12----15p12--------------------------------------|
G|--14b---------------14brp(12)---------------------------|
D|------------------------------14-12~~-------------------|
A|--------------------------------------------------------|
E|--------------------------------------------------------|

            
            
Suggest correction
Creating personal tab
Creating personal tab
You can edit any tab online and save it as your Personal.

You can edit, replace or remove any tab part or add personal notes – all changes will be seen only by you.

Personal tabs can be accessed anytime from any device, even offline.
Learn more »
Give kudos to tab author, rate the tab!
1 2 3 4 5
comments
print report bad tab
guest
You may want to rate the tab now too:
select rating
Wanna post a correction for this tab? Suggest correction