Oops, an error
Loading. Please wait.

Fire Woman tab

version 2
version 2

Whole song

41,074 views 30 this week
1 commentread comment
1 2 3 4 5
x 3
add to favorites
×
Save as Personal and add changes to this tab that will be seen only by you. Learn more ›
×
You can save this tab as Personal to edit and correct it or add notes. All changes will be seen only by you. Learn more »
launch autoscroll
font size
0
reset
how to read this tab
guitar tuner
backing track
0:00
0:00
edit
Autoscroll
slow
fast
+/-
esc
set tempo
stop
#----------------------------------PLEASE NOTE---------------------------------#
#This file is the author's own work and represents their interpretation of the #
#song. You may only use this file for private study, scholarship, or research. #
#------------------------------------------------------------------------------#

FIRE WOMAN
As recorded by the cult



Transcribed by sam hunt

 Words and Music by the cult
Arranged by sam hunt
 

Gtr I (E A D G B E) - 'clean eltric (with light overdrive)'
Gtr II (E A D G B E) - 'lead guiatr'
Gtr III (E A D G B E) - 'rhythm'
Gtr IV (E A D G B E) - 'solo guiatr 1 with light echo'


   intro
    Q=132
   4/4
    Gtr I
    E E E E E E Q    +W           E E E E E E Q    +W
||-----------------|------------|----------------|--------|
||o-------------3--|-(3)--------|-----------0-3--|-(3)----|
||------0-----0-2--|-(2)--------|-----0---0---2--|-(2)----|
||----0-----0---0--|-(0)--------|---0---2-----0--|-(0)----|
||o-------3--------|------------|----------------|--------|
||--3--------------|------------|-3--------------|--------|


  E E E E E E Q    +W            W          +W
|----------------|------------|-^3--------|-(3)-----||
|-------------3--|-(3)--------|-^3--------|-(3)----o||
|-----0-----0-2--|-(2)--------|-^0--------|-(0)-----||
|---0-----0---0--|-(0)--------|-^0--------|-(0)-----||
|-------3--------|------------|-----------|--------o||
|-3--------------|------------|-^3--------|-(3)-----||


             5/4
  Gtr II
   W           W          E E
|-^3--------|-----------------|
|-^3--------|-----------------|
|-^0--------|-------------5-7-|
|-^0--------|-----------------|
|-----------|-----------------|
|-^3--------|-[x]\------------|


   riff
   4/4
    Gtr II
            ~~~~~~                  ~~~~~~                ~~~~~~
     Q.     E +Q    E E      Q.     E +Q    E E    Q.     E +Q    E  E
||------------------------|---------------------|-----------------------|
||o-----------------------|---------------------|-----------------------|
||--10------7-(7)---5-7---|-10------7-(7)---5-7-|-10------7-(7)---5-12--|
||------------------------|---------------------|-----------------------|
||o-----------------------|---------------------|-----------------------|
||------------------------|---------------------|-----------------------|
|
|   Gtr III
|         PM|     PM            PM  PM      PM          PM|     PM   PM
|    E  E E E  E  E E S S    E  E E E  E  E E E   +E  E E E  E  E E  E
||------------------------|---------------------|-----------------------|
||o-----------------------|---------------------|-----------------------|
||--(7)-7------7----7-----|--5----5----5--5---5-|-(5)-5------5----5-----|
||--(7)-7------7----7-----|--5----5----5--5---5-|-(5)-5------5----5-----|
||o-(5)-5-5-5--5--5-5-5S3-|--3--3-3-3--3--3-3-2-|-(2)-2-2-2--2--2-2--2--|
||------------------------|---------------------|-----------------------|


  1.                   2.
       ~                         ~~~
   E E H       E E      E E E E +Q    E E
|-------------------||-----------------------|
|------------------o||-----------------------|
|-10-9-5-------5-7--||-10-9-5-5-(5)---5-7----|
|-------------------||-----------------------|
|------------------o||-----------------------|
|-------------------||-----------------------|
|
|    PM  PM    PM         PM  PM
|  E E E E E E E E      E E E E  E  E E E
|-------------------||-----------------------|
|------------------o||-----------------------|
|--5---5---5-5---7--||--5---5-----------7----|
|--5---5---5-5---7--||--5---5----5--5---7----|
|--3-3-3-3-3-3-3-5-o||--3-3-3-3--5--5---5----|
|-------------------||-----------3--3--------|


   verse
   4/4
    Gtr II
     ~~~~~~~~~~~~~~~~~~~~~~~~~
    +W                    +W
||----------------------|-------------------|
||o---------------------|-------------------|
||--(7)-----------------|-(7)---------------|
||----------------------|-------------------|
||o---------------------|-------------------|
||----------------------|-------------------|
|
|   Gtr III
|         PM|   PM            PM  PM    PM
|   +E  E E E E E E S S    E  E E E E E E E
||----------------------|-------------------|
||o---------------------|-------------------|
||--(7)-7-----7---7-----|--5----5---5-5---5-|
||--(7)-7-----7---7-----|--5----5---5-5---5-|
||o-(5)-5-5-5-5-5-5-5S3-|--3--3-3-3-3-3-3-2-|
||----------------------|-------------------|


                      1.                  2.
                                         5/4
   ~~~
  +W                  W
|-------------------|------------------||------------------------|
|-------------------|-----------------o||------------------------|
|-(7)---------------|------------------||------------------------|
|-------------------|------------------||------------------------|
|-------------------|-----------------o||------------------------|
|-------------------|------------------||------------------------|
|
|       PM|   PM  PM    PM  PM    PM        PM  PM
|  E  E E E E E E E   E E E E E E E E     E E E E E E E E +E  E
|-------------------|------------------||------------------------|
|-------------------|-----------------o||------------------------|
|--5--5-----5---5---|-5---5---5-5---7--||-5---5---------7-(7)----|
|-(5)-5-----5---5---|-5---5---5-5---7--||-5---5---5-5---7-(7)----|
|-(2)-2-2-2-2-2-2-2-|-3-3-3-3-3-3-3-5-o||-3-3-3-3-5-5---5-(5)-5--|
|-------------------|------------------||---------3-3------------|


 pre chorus
 4/4
              |-3-|                   |-3-|
  +E  E E E E S S S E E   +E  E E E E S S S E E
|-----------------------|-----------------------|
|-----------------------|-----------6-4h6p4S3---|
|-----7-----7-5h7p5S4---|-------5---------------|
|-------7-------------3-|-(3)-3---3-----------5-|
|-(5)-----5-------------|-----------------------|
|-----------------------|-----------------------|


              |-3-|                     |-3-|                 |-3-|
  +E  E E E E S S S E  E    +E  E E E E S S S E E   E E E E E S S S E E
|-------------------------|-----------------------|---------------------|
|-----------8-6h8p6S5-----|-----------6-4h6p4S3---|---------------------|
|-------7-----------------|-------5---------------|---7-----7-5h7p5S4---|
|-(5)-5---5------------3--|-(3)-3---3-------------|-----7-------------3-|
|-------------------------|---------------------5-|-5-----5-------------|
|-------------------------|-----------------------|---------------------|


   W                     W                H.      E E
|----------------------|---------------|--------------|
|----------------------|---------------|--------------|
|----------------------|---------------|----------5-7-|
|----------------------|---------------|--------------|
|----------------------|---------------|--------------|
|----------------------|---------------|--------------|
|
|             |-3-|
| +E  E E E E S S S Q    q  q  E E E E   +W
|----------------------|---------------|--------------|
|-----------6-4h6p4p3--|-8--8----8-8-6-|-(6)----------|
|-------5--------------|-7--7----7-7-5-|-(5)----------|
|-(3)-3---3------------|-5--5----5-5-3-|-(3)----------|
|----------------------|---------------|--------------|
|----------------------|---------------|--------------|


 chorus
          ~~~~~~                    ~~~~~~
   Q.     E +Q    E E        Q.     E +Q    E E
|---------------------|-------------------------|
|---------------------|-------------------------|
|-10------7-(7)---5-7-|-----10------7-(7)---5-7-|
|---------------------|-------------------------|
|---------------------|-------------------------|
|---------------------|-------------------------|
|
|  E  E E E  E  E E E   +E   E  E E E  E  E E
|---------------------|-------------------------|
|-------8-------8-----|---------6------6--------|
|-------7-------7-----|---------5------5----4---|
|--7--7-7----7--7---5-|-(5)--5--5---5--5----5---|
|--5--5-5----5--5---3-|-(3)--3--3---3--3----5---|
|---------------------|---------------------3---|


       Q.     E +E  E    Q     E  E E E +Q    E E
|---------------------------|-----------------------|
|---------------------------|-----------------------|
|-----10------7-(7)-7---12--|-10--9-5-5-(5)---5-7---|
|---------------------------|-----------------------|
|---------------------------|-----------------------|
|---------------------------|-----------------------|
|
| +E   E  E E E  E  E E       +E  E E E  E  E E E
|---------------------------|-----------------------|
|---------5---5-------5-----|-(5)---6----6--5-------|
|-(4)-----5---5--4----5-----|-(5)---5----5--5-------|
|-(5)-----5---5--5----5-----|-(5)-5-5----5--5---7---|
|-(5)--5--5---5--5----3-----|-(3)-3-3----3--3---5---|
|-(3)--3--3---3--3----------|-----------------------|


          ~~~~~~                ~~~~~~
   Q.     E +Q    E E    Q.     E +Q    E E
|---------------------|---------------------|
|---------------------|---------------------|
|-10------7-(7)---5-7-|-10------7-(7)---5-7-|
|---------------------|---------------------|
|---------------------|---------------------|
|---------------------|---------------------|
|
| +E  E E E  E  E E E   +E  E E E  E  E E E
|---------------------|---------------------|
|-------8-------8-----|---------------------|
|-------7-------7---2-|-(2)---3-------3---4-|
|-(7)-7-7----7--7---3-|-(3)---3-------3---5-|
|-(5)-5-5----5--5---3-|-(3)-3-3----3--3---5-|
|-------------------1-|-(1)-1-1----1--1---3-|


   Q.     E +Q    E E    E  E E E +Q    E E
|---------------------|----------------------|
|---------------------|----------------------|
|-10------7-(7)---5-7-|-10--9-5-5-(5)---5-7--|
|---------------------|----------------------|
|---------------------|----------------------|
|---------------------|----------------------|
|
| +E  E E E  E  E E E    E  E E E  E  E E E
|---------------------|----------------------|
|-------5-------5---5-|-(5)---6----6--6------|
|-(4)---5-------5---5-|-(5)---5----5--5------|
|-(5)---5-------5---5-|-(5)-5-5----5--5---7--|
|-(5)-5-5----5--5---5-|--3--3-3----3--3---5--|
|-(3)-3-3----3--3---3-|----------------------|


          ~~~~~~                ~~~~~~
   E  E E E +Q    E E    E  E E E +Q    E E
|---------------------|---------------------|
|---------------------|---------------------|
|-10p=9-7-7-(7)---5-7-|-10p=9-7-7-(7)---5-7-|
|---------------------|---------------------|
|---------------------|---------------------|
|---------------------|---------------------|
|
| +E  E E E  E  E E E   +E  E E E  E  E E E
|---------------------|---------------------|
|-------8----8--7-----|-------6----6--5-----|
|-------7----7--7-----|-------5----5--5---4-|
|-(7)-7-7----7--7---5-|-(5)-5-5----5--5---5-|
|-(5)-5-5----5--5---3-|-(3)-3-3----3--3---5-|
|---------------------|-------------------3-|


          ~~~~~~
   E  E E E +Q    E E    E  E E E  E  E  E E
|---------------------|-----------------------|
|---------------------|-----------------------|
|-10p=9-7-7-(7)---5-7-|-10p=9-7-9-10S12-10S9--|
|---------------------|-----------------------|
|---------------------|-----------------------|
|---------------------|-----------------------|
|
| +E  E E E  E  E E E   +E  E E E  E  E  E E
|---------------------|-----------------------|
|-------5-------5---5-|-(5)---6----6--6-------|
|-(4)---5----4--5---5-|-(5)---5----5--5-------|
|-(5)---5----5--5---5-|-(5)-5-5----5--5----7--|
|-(5)-5-5----5--5---3-|-(3)-3-3----3--3----5--|
|-(3)-3-3----3--3-----|-----------------------|


  Gtr IV
   W                           W
|----------------------|-------------------------|
|----------------------|-------------------------|
|----------------------|-------------------------|
|----------------------|-------------------------|
|----------------------|-------------------------|
|----------------------|-------------------------|
|
| Gtr II
|         ~~~~~~                    ~~~~~~
|  E  E E E +Q    E  E     E   E  E E +Q     E E
|----------------------|-------------------------|
|----------------------|-------------------------|
|-10p=9-7-7-(7)---5--7-|--10p==9--7-7-(7)----5-7-|
|----------------------|-------------------------|
|----------------------|-------------------------|
|----------------------|-------------------------|
|
| Gtr III
| +E  E E E  E  E E  E    +E   E  E E  E   E E E
|----------------------|-------------------------|
|------------8--7---10-|-(10)----11---11--10-----|
|-------8----7--7---10-|-(10)----10---10--10---4-|
|-(7)-7-7----7--7---10-|-(10)-10-10---10--10---5-|
|-(5)-5-5----5--5----8-|--(8)--8--8----8---8---5-|
|----------------------|-----------------------3-|


                                          PM|
      W                   H.              E  E
|----------------------|------------------------|
|----------------------|------------------------|
|----------------------|------------------------|
|----------------------|-----------------10-10--|
|----------------------|------------------------|
|----------------------|------------------------|
|
|         ~~~~~~
|  E  E E E +Q     Q      E  E E E +H
|----------------------|------------------------|
|----------------------|------------------------|
|-10--9-7-7-(7)---10---|-10--9-5-5-(5)----------|
|----------------------|------------------------|
|----------------------|------------------------|
|----------------------|------------------------|
|
| +E  E E E  E  E  E E   +E  E E E  E  E  E  E
|----------------------|------------------------|
|-------5----5-------5-|-(5)---6----6--5--------|
|-(4)---5----5--4----5-|-(5)---5----5--5--------|
|-(5)---5----5--5----5-|-(5)-5-5----5--5-----7--|
|-(5)-5-5----5--5----3-|-(3)-3-3----3--3-----5--|
|-(3)-3-3----3--3------|------------------------|


 guitar solo 1
  Gtr IV
      ~~~~~~~~~~~~~~~~~~~~~~~~~~
   a  W                     +H.            +E   E
|------------------------|------------------------|
|------------------------|------------------------|
|------------------------|---------------------10-|
|-10-12------------------|-(12)-----------(12)----|
|------------------------|------------------------|
|------------------------|------------------------|
|
| Gtr III
|          PM|   PM             PM  PM      PM
|     E  E E E E E E S S     E  E E E E E   E   E
|------------------------|------------------------|
|------------------------|------------------------|
|----(7)-7-----7---7-----|---5----5---5-5-------5-|
|----(7)-7-----7---7-----|---5----5---5-5-------5-|
|----(5)-5-5-5-5-5-5-5S3-|---3--3-3-3-3-3---3---2-|
|------------------------|------------------------|


                                ~~~~                                     ~~
   +E       +E   +E       +E   +H           +Q     Q       +E   S  S  e  E
|----------------------------------------|---------------------------------|
|----------------------------------------|---------------------------------|
|-(10)b11==(10)r(10)b11==(10)r(10)-------|-(10)---12b13---(12)-12p10-------|
|----------------------------------------|---------------------------12-12-|
|----------------------------------------|---------------------------------|
|----------------------------------------|---------------------------------|
|
|                 PM-----|         PM  PM       PM      PM            PM
|   E        E    E        E    E  E E E     E  E  E    E   E   E     E  E
|----------------------------------------|---------------------------------|
|----------------------------------------|---------------------------------|
|---5--------5------------------5----5---|---5-----5--------5---5--------7-|
|---5--------5------------------5----5---|---5-----5--------5---5--------7-|
|---2--------2----2--------2----2--2-2-2-|---3--3--3----3---3---3-----3--5-|
|----------------------------------------|---------------------------------|


    ~~~~                         ~~~~~~~~~~~          ~~
   +E   E  E  E  E   E        E  E      +E   E  E  E  Q    E  E
|------------------------------------|--------------------------|
|------------------------------------|--------------------------|
|---------10----12-[10]b10.5---------|---------10---------------|
|-(12)-12----12--------------12-12---|-(12)-12----12-12---10-12-|
|------------------------------------|--------------------------|
|------------------------------------|--------------------------|
|
|          PM|       PM                      PM    PM      PM
|  +E   E  E  E  E   E        E  S S     E   E  E  E  E E  E  E
|------------------------------------|--------------------------|
|------------------------------------|--------------------------|
|--(7)--7--------7------------7------|---5------5-----5-5-----5-|
|--(7)--7--------7------------7------|---5------5-----5-5-----5-|
|--(5)--5--5--5--5---5--------5--5S3-|---3---3--3--3--3-3--3--2-|
|------------------------------------|--------------------------|


   E  E  E  E  E       E  E  E    E  E  E  E  E     S  S  S  E
|------------------------------|----------10-12b13-12p10------------|
|---------------------13-12-10-|----10-12----------------13-13b15---|
|-12-10----12-10b10.5----------|-12---------------------------------|
|-------12---------------------|------------------------------------|
|------------------------------|------------------------------------|
|------------------------------|------------------------------------|
|
|        PM|           PM    PM      PM    PM             PM
|  E  E  E  E  E       E  E  E    E  E  E  E  E     E     E       E
|------------------------------|------------------------------------|
|------------------------------|------------------------------------|
|--5--5--------5----------5----|--5-----5-----5-----5-------------7-|
|--5--5--------5----------5----|--5-----5-----5-----5-------------7-|
|--2--2--2--2--2-------2--2--2-|--3--3--3--3--3-----3-----3-------5-|
|------------------------------|------------------------------------|


   verse 2
      ~~~~~~~~~~~~~~~~~~~~~~~~~~
     +W                     +W
||-----------------------|--------------------|
||o-(13)-----------------|-(13)---------------|
||-----------------------|--------------------|
||-----------------------|--------------------|
||o----------------------|--------------------|
||-----------------------|--------------------|
|
|   Gtr III
|          PM|   PM             PM  PM    PM
|    +E  E E E E E E S S     E  E E E E E E E
||-----------------------|--------------------|
||o----------------------|--------------------|
||---(7)-7-----7---7-----|---5----5---5-5---5-|
||---(7)-7-----7---7-----|---5----5---5-5---5-|
||o--(5)-5-5-5-5-5-5-5S3-|---3--3-3-3-3-3-3-2-|
||-----------------------|--------------------|


                    1.                  2.
                                       5/4
  W                 W
|-----------------|------------------||-----------------------|
|-----------------|-----------------o||-----------------------|
|-----------------|------------------||-----------------------|
|-----------------|------------------||-----------------------|
|-----------------|-----------------o||-----------------------|
|-----------------|------------------||-----------------------|
|
|     PM|   PM  PM    PM  PM    PM        PM  PM
| E E E E E E E E   E E E E E E E E     E E E E E E E E +E  E
|-----------------|------------------||-----------------------|
|-----------------|-----------------o||-----------------------|
|-5-5-----5---5---|-5---5---5-5---7--||-5---5---------7-(7)---|
|-5-5-----5---5---|-5---5---5-5---7--||-5---5---5-5---7-(7)---|
|-2-2-2-2-2-2-2-2-|-3-3-3-3-3-3-3-5-o||-3-3-3-3-5-5---5-(5)-5-|
|-----------------|------------------||---------3-3-----------|


 pre chorus
 4/4
  Gtr II
              |-3-|                   |-3-|
  +E  E E E E S S S E E   +E  E E E E S S S E E
|-----------------------|-----------------------|
|-----------------------|-----------6-4h6p4S3---|
|-----7-----7-5h7p5S4---|-------5---------------|
|-------7-------------3-|-(3)-3---3-----------5-|
|-(5)-----5-------------|-----------------------|
|-----------------------|-----------------------|


              |-3-|                   |-3-|                 |-3-|
  +E  E E E E S S S E E   +E  E E E E S S S E E   E E E E E S S S E E
|-----------------------|-----------------------|-----------------------|
|-----------8-6h8p6S5---|-----------6-4h6p4S3---|-----------------------|
|-------7---------------|-------5---------------|---7-----7-5h7p5S4-----|
|-(5)-5---5-----------3-|-(3)-3---3-------------|-----7-------------3---|
|-----------------------|---------------------5-|-5-----5---------------|
|-----------------------|-----------------------|-----------------------|


  Gtr II
          W              W                H.     E E
|----------------------|---------------|--------------|
|----------------------|---------------|--------------|
|----------------------|---------------|---------5-7--|
|----------------------|---------------|--------------|
|----------------------|---------------|--------------|
|----------------------|---------------|--------------|
|
| Gtr III
|             |-3-|
| +E  E E E E S S S Q    q  q  E E E E   +W
|----------------------|---------------|--------------|
|-----------6-4h6p4p3--|-8--8----8-8-6-|-(6)----------|
|-------5--------------|-7--7----7-7-5-|-(5)----------|
|-(3)-3---3------------|-5--5----5-5-3-|-(3)----------|
|----------------------|---------------|--------------|
|----------------------|---------------|--------------|


 chorus
          ~~~~~~                ~~~~~~
   Q.     E +Q    E E    Q.     E +Q    E E
|---------------------|---------------------|
|---------------------|---------------------|
|-10------7-(7)---5-7-|-10------7-(7)---5-7-|
|---------------------|---------------------|
|---------------------|---------------------|
|---------------------|---------------------|
|
|  E  E E E  E  E E E   +E  E E E  E  E E E
|---------------------|---------------------|
|-------8-------8-----|-------6-------6-----|
|-------7-------7-----|-------5-------5---4-|
|--7--7-7----7--7---5-|-(5)-5-5----5--5---5-|
|--5--5-5----5--5---3-|-(3)-3-3----3--3---5-|
|---------------------|-------------------3-|


   Q.     E +E  E  Q      E  E E E +Q    E E
|----------------------|----------------------|
|----------------------|----------------------|
|-10------7-(7)-7-12---|-10--9-5-5-(5)---5-7--|
|----------------------|----------------------|
|----------------------|----------------------|
|----------------------|----------------------|
|
| +E  E E E  E  E  E E   +E  E E E  E  E E E
|----------------------|----------------------|
|-------5----5-------5-|-(5)---6----6--5------|
|-(4)---5----5--4----5-|-(5)---5----5--5------|
|-(5)---5----5--5----5-|-(5)-5-5----5--5---7--|
|-(5)-5-5----5--5----3-|-(3)-3-3----3--3---5--|
|-(3)-3-3----3--3------|----------------------|


          ~~~~~~                ~~~~~~
   Q.     E +Q    E E    Q.     E +Q    E E
|---------------------|---------------------|
|---------------------|---------------------|
|-10------7-(7)---5-7-|-10------7-(7)---5-7-|
|---------------------|---------------------|
|---------------------|---------------------|
|---------------------|---------------------|
|
| +E  E E E  E  E E E   +E  E E E  E  E E E
|---------------------|---------------------|
|-------8-------8-----|---------------------|
|-------7-------7---2-|-(2)---3-------3---4-|
|-(7)-7-7----7--7---3-|-(3)---3-------3---5-|
|-(5)-5-5----5--5---3-|-(3)-3-3----3--3---5-|
|-------------------1-|-(1)-1-1----1--1---3-|


   Q.     E +Q    E E    E  E E E +Q    E E
|---------------------|----------------------|
|---------------------|----------------------|
|-10------7-(7)---5-7-|-10--9-5-5-(5)---5-7--|
|---------------------|----------------------|
|---------------------|----------------------|
|---------------------|----------------------|
|
| +E  E E E  E  E E E    E  E E E  E  E E E
|---------------------|----------------------|
|-------5-------5---5-|-(5)---6----6--6------|
|-(4)---5-------5---5-|-(5)---5----5--5------|
|-(5)---5-------5---5-|-(5)-5-5----5--5---7--|
|-(5)-5-5----5--5---5-|--3--3-3----3--3---5--|
|-(3)-3-3----3--3---3-|----------------------|


          ~~~~~~                ~~~~~~
   E  E E E +Q    E E    E  E E E +Q    E E
|---------------------|---------------------|
|---------------------|---------------------|
|-10p=9-7-7-(7)---5-7-|-10p=9-7-7-(7)---5-7-|
|---------------------|---------------------|
|---------------------|---------------------|
|---------------------|---------------------|
|
| +E  E E E  E  E E E   +E  E E E  E  E E E
|---------------------|---------------------|
|-------8----8--7-----|-------6----6--5-----|
|-------7----7--7-----|-------5----5--5---4-|
|-(7)-7-7----7--7---5-|-(5)-5-5----5--5---5-|
|-(5)-5-5----5--5---3-|-(3)-3-3----3--3---5-|
|---------------------|-------------------3-|


          ~~~~~~
   E  E E E +Q    E E    E  E E E  E  E  E E
|---------------------|-----------------------|
|---------------------|-----------------------|
|-10p=9-7-7-(7)---5-7-|-10p=9-7-9-10S12-10S9--|
|---------------------|-----------------------|
|---------------------|-----------------------|
|---------------------|-----------------------|
|
| +E  E E E  E  E E E   +E  E E E  E  E  E E
|---------------------|-----------------------|
|-------5-------5---5-|-(5)---6----6--6-------|
|-(4)---5----4--5---5-|-(5)---5----5--5-------|
|-(5)---5----5--5---5-|-(5)-5-5----5--5----7--|
|-(5)-5-5----5--5---3-|-(3)-3-3----3--3----5--|
|-(3)-3-3----3--3-----|-----------------------|


  Gtr IV
         W                W
|---------------------|-------------------------|
|---------------------|-------------------------|
|---------------------|-------------------------|
|---------------------|-------------------------|
|---------------------|-------------------------|
|---------------------|-------------------------|
|
| Gtr II
|        ~~~~~~                    ~~~~~~
|  E E E E +Q    E  E     E   E  E E +Q     E E
|---------------------|-------------------------|
|---------------------|-------------------------|
|-10p9-7-7-(7)---5--7-|--10p==9--7-7-(7)----5-7-|
|---------------------|-------------------------|
|---------------------|-------------------------|
|---------------------|-------------------------|
|
| Gtr III
|  E E E E  E  E E  E    +E   E  E E  E   E E E
|---------------------|-------------------------|
|-----------8--7---10-|-(10)----11---11--10-----|
|------8----7--7---10-|-(10)----10---10--10---4-|
|--7-7-7----7--7---10-|-(10)-10-10---10--10---5-|
|--5-5-5----5--5----8-|--(8)--8--8----8---8---5-|
|---------------------|-----------------------3-|


                                       PM--|
   W                      H         E  E E E
|----------------------|----------------------|
|----------------------|----------------------|
|----------------------|----------------------|
|----------------------|---------------0-0-0--|
|----------------------|----------------------|
|----------------------|----------------------|
|
|         ~~~~~~
|  E  E E E +Q     Q      E  E E E +H
|----------------------|----------------------|
|----------------------|----------------------|
|-10--9-7-7-(7)---10---|-10--9-5-5-(5)--------|
|----------------------|----------------------|
|----------------------|----------------------|
|----------------------|----------------------|
|
| +E  E E E  E  E  E E   +E  E E E  E  E E E
|----------------------|----------------------|
|-------5----5-------5-|-(5)---6----6--5------|
|-(4)---5----5--4----5-|-(5)---5----5--5------|
|-(5)---5----5--5----5-|-(5)-5-5----5--5---7--|
|-(5)-5-5----5--5----3-|-(3)-3-3----3--3---5--|
|-(3)-3-3----3--3------|----------------------|


 solo 2
  half time feel Q=132
  D           Csus2
  Gtr IV
   ~~~~~~
                                 |--3--|
   W                +E   +E   E  S  S  S  +Q.    E
|----------------|------------------------------13b15r|
|-13b15==========|=(13)-(13)r13-10h13p10-(10)---------|
|----------------|------------------------------------|
|----------------|------------------------------------|
|----------------|------------------------------------|
|----------------|------------------------------------|
|
| Gtr III
|  H..        E     +W
|--2----------3--|--(3)-------------------------------|
|--3----------3--|--(3)-------------------------------|
|--2----------0--|--(0)-------------------------------|
|--0----------0--|--(0)-------------------------------|
|-------------3--|--(3)-------------------------------|
|----------------|------------------------------------|


  G/B                 Csus2
   +E   E  E  E  E  S  S  E  E
|-(13)-13-12-10-12-12p10----10----|
|------------------------13-------|
|---------------------------------|
|---------------------------------|
|---------------------------------|
|---------------------------------|
|
|   H                  H
|----------------------3----------|
|---0------------------3----------|
|---0------------------0----------|
|---0------------------0----------|
|---2------------------3----------|
|---------------------------------|


                                                     |--3--|
   a   E  E  E     +S   S  Q    S    E.    +Q     E  S  S  S S  S S  S E  E
|--------13-15b17r(15)-13---------------|-----------------------------------|
|-13S=15------------------15--(15)------|-----------------------------------|
|-----------------------------------13--|-(13)---12-10h12p10S9h10p9h10p9h10S|
|---------------------------------------|-----------------------------------|
|---------------------------------------|-----------------------------------|
|---------------------------------------|-----------------------------------|
|
| +W                                        H..                   E
|-(3)-----------------------------------|-------------------------3---------|
|-(3)-----------------------------------|-------------------------3---------|
|-(0)-----------------------------------|---7---------------------0---------|
|-(0)-----------------------------------|---7---------------------0---------|
|-(3)-----------------------------------|---5---------------------3---------|
|---------------------------------------|-----------------------------------|


                                       |---3----|
   E      +E   +E       +S   +S       +S   +S   S  E  +S  S  S
|---------------------------------------------------------------|
|---------------------------------------------------------------|
|-12b14==(12)r(12)b14==(12)r(12)b14==(12)r(12)-10---------xS14--|
|-------------------------------------------------12-(12)-------|
|---------------------------------------------------------------|
|---------------------------------------------------------------|
|
| +W
|-(3)-----------------------------------------------------------|
|-(3)-----------------------------------------------------------|
|-(0)-----------------------------------------------------------|
|-(0)-----------------------------------------------------------|
|-(3)-----------------------------------------------------------|
|---------------------------------------------------------------|


                                     ~~~~~~~~~~~~~~~~~
   E    E  E  E  E  E  E  E         +W            +W
|---------------13-15S20-20pb22==|=(20)--------|-(20)----|
|-13------13-15------------------|-------------|---------|
|------14------------------------|-------------|---------|
|--------------------------------|-------------|---------|
|--------------------------------|-------------|---------|
|--------------------------------|-------------|---------|
|
|  H..                 E            +H
|----------------------3---------|--(3)--------|---------|
|--0-------------------3---------|--(3)--------|---------|
|--0-------------------0---------|--(0)--------|---------|
|--0-------------------0---------|--(0)--------|---------|
|--3-------------------3---------|--(3)--------|---------|
|--------------------------------|-------------|---------|


   inturlude
    Gtr I
    E E E E E E Q    +W           E E E E E E Q    +W
||-----------------|------------|----------------|--------|
||o-------------3--|-(3)--------|-----------0-3--|-(3)----|
||------0-----0-2--|-(2)--------|-----0---0---2--|-(2)----|
||----0-----0---0--|-(0)--------|---0---2-----0--|-(0)----|
||o-------3--------|------------|----------------|--------|
||--3--------------|------------|-3--------------|--------|


                                                           Gtr II
  E E E E E E Q    +W            W          +W              W           W
|----------------|------------|-^3--------|-(3)---------||-^3--------|---------|
|-------------3--|-(3)--------|-^3--------|-(3)--------o||-^3--------|---------|
|-----0-----0-2--|-(2)--------|-^0--------|-(0)---------||-^0--------|---------|
|---0-----0---0--|-(0)--------|-^0--------|-(0)---------||-^0--------|---------|
|-------3--------|------------|-----------|------------o||-----------|---------|
|-3--------------|------------|-^3--------|-(3)---------||-^3--------|-\----|


  Gtr II
                ~                         ~~
                         |----3-----|
  Q     E   E   H        Q    Q     Q     H
|---------------------|-------------------------|
|-------5---5---5-----|-------8-----8-----8-----|
|-------7b9r7b9r7-----|------10b12r10b12r10-----|
|---------------------|-------------------------|
|---------------------|-------------------------|
|---------------------|-------------------------|
|
| Gtr III
|   H..             E   +H..                  E
|-------------------3-|-(3)-------------------2-|
|-------------------3-|-(3)-------------------3-|
|-------------------0-|-(0)-------------------2-|
|---7---------------0-|-(0)-------------------0-|
|---7-----------------|-----------------------0-|
|---5---------------3-|-(3)-------------------3-|


                                              ~~
   |----3----|               |----3-----|
   Q   Q     Q     H         Q    Q     Q     H
|-------------------------|---------------------------|
|-----10----10----10\-----|-------8-----8-----8-------|
|-----12b14r12b14r12\-----|------10b12r10b12r10-------|
|-------------------------|---------------------------|
|-------------------------|---------------------------|
|-------------------------|---------------------------|
|
| +H.                   Q   +H..                   E
|-(2)-------------------3-|-(3)--------------------2--|
|-(3)-------------------3-|-(3)--------------------3--|
|-(2)-------------------0-|-(0)--------------------2--|
|-(0)-------------------0-|-(0)--------------------0--|
|-(0)---------------------|------------------------0--|
|-(3)-------------------3-|-(3)--------------------3--|


   Q      Q      Q.      E    +E   E     S  E.  Q.    S     S
|--------------------------|----------------------------------|
|-10-----10-----10------12-|-(12)-12----12-12--12----------17-|
|-12b14r=12b14r=12b14r==14-|-(14)-14b16r16-16--14----19b21----|
|--------------------------|----------------------------------|
|--------------------------|----------------------------------|
|--------------------------|----------------------------------|
|
|  H..                   E    +W
|------------------------3-|--(3)-----------------------------|
|------------------------3-|--(3)-----------------------------|
|------------------------0-|--(0)-----------------------------|
|--7---------------------0-|--(0)-----------------------------|
|--7-----------------------|----------------------------------|
|--5---------------------3-|--(3)-----------------------------|


                                                        ~~~~~~~~~~~~
   S    S  S     S  S  S  S     S  S  S  S     S  S  S  E       +H.      E E
|------------------------------------------------------------|---------------|
|-20---17-------17-20-17-------17-20-17-------17-20-17-20b22-|-(20)----------|
|---------19b21----------19b21----------19b21----------------|-----------5-7-|
|------------------------------------------------------------|---------------|
|------------------------------------------------------------|---------------|
|------------------------------------------------------------|---------------|
|
|  H..                                                  E       +W
|--2---------------------------------------------------------|---------------|
|--3---------------------------------------------------------|---------------|
|--2---------------------------------------------------------|---------------|
|--0----------------------------------------------------3----|--(3)----------|
|--0----------------------------------------------------3----|--(3)----------|
|--3----------------------------------------------------1----|--(1)----------|


 chorus
          ~~~~~~                ~~~~~~
   Q.     E +Q    E E    Q.     E +Q    E E
|---------------------|---------------------|
|---------------------|---------------------|
|-10------7-(7)---5-7-|-10------7-(7)---5-7-|
|---------------------|---------------------|
|---------------------|---------------------|
|---------------------|---------------------|
|
|  E  E E E  E  E E E   +E  E E E  E  E E E
|---------------------|---------------------|
|-------8-------8-----|-------6-------6-----|
|-------7-------7-----|-------5-------5---4-|
|--7--7-7----7--7---5-|-(5)-5-5----5--5---5-|
|--5--5-5----5--5---3-|-(3)-3-3----3--3---5-|
|---------------------|-------------------3-|


   Q.     E +E  E  Q      E  E E E +Q    E E
|----------------------|----------------------|
|----------------------|----------------------|
|-10------7-(7)-7-12---|-10--9-5-5-(5)---5-7--|
|----------------------|----------------------|
|----------------------|----------------------|
|----------------------|----------------------|
|
| +E  E E E  E  E  E E   +E  E E E  E  E E E
|----------------------|----------------------|
|-------5----5-------5-|-(5)---6----6--5------|
|-(4)---5----5--4----5-|-(5)---5----5--5------|
|-(5)---5----5--5----5-|-(5)-5-5----5--5---7--|
|-(5)-5-5----5--5----3-|-(3)-3-3----3--3---5--|
|-(3)-3-3----3--3------|----------------------|


          ~~~~~~                ~~~~~~
   Q.     E +Q    E E    Q.     E +Q    E E
|---------------------|---------------------|
|---------------------|---------------------|
|-10------7-(7)---5-7-|-10------7-(7)---5-7-|
|---------------------|---------------------|
|---------------------|---------------------|
|---------------------|---------------------|
|
| +E  E E E  E  E E E   +E  E E E  E  E E E
|---------------------|---------------------|
|-------8-------8-----|---------------------|
|-------7-------7---2-|-(2)---3-------3---4-|
|-(7)-7-7----7--7---3-|-(3)---3-------3---5-|
|-(5)-5-5----5--5---3-|-(3)-3-3----3--3---5-|
|-------------------1-|-(1)-1-1----1--1---3-|


   Q.     E +Q    E E    E  E E E +Q    E E
|---------------------|----------------------|
|---------------------|----------------------|
|-10------7-(7)---5-7-|-10--9-5-5-(5)---5-7--|
|---------------------|----------------------|
|---------------------|----------------------|
|---------------------|----------------------|
|
| +E  E E E  E  E E E    E  E E E  E  E E E
|---------------------|----------------------|
|-------5-------5---5-|-(5)---6----6--6------|
|-(4)---5-------5---5-|-(5)---5----5--5------|
|-(5)---5-------5---5-|-(5)-5-5----5--5---7--|
|-(5)-5-5----5--5---5-|--3--3-3----3--3---5--|
|-(3)-3-3----3--3---3-|----------------------|


          ~~~~~~                ~~~~~~
   E  E E E +Q    E E    E  E E E +Q    E E
|---------------------|---------------------|
|---------------------|---------------------|
|-10p=9-7-7-(7)---5-7-|-10p=9-7-7-(7)---5-7-|
|---------------------|---------------------|
|---------------------|---------------------|
|---------------------|---------------------|
|
| +E  E E E  E  E E E   +E  E E E  E  E E E
|---------------------|---------------------|
|-------8----8--7-----|-------6----6--5-----|
|-------7----7--7-----|-------5----5--5---4-|
|-(7)-7-7----7--7---5-|-(5)-5-5----5--5---5-|
|-(5)-5-5----5--5---3-|-(3)-3-3----3--3---5-|
|---------------------|-------------------3-|


          ~~~~~~
   E  E E E +Q    E E    E  E E E  E  E  E E
|---------------------|-----------------------|
|---------------------|-----------------------|
|-10p=9-7-7-(7)---5-7-|-10p=9-7-9-10S12-10S9--|
|---------------------|-----------------------|
|---------------------|-----------------------|
|---------------------|-----------------------|
|
| +E  E E E  E  E E E   +E  E E E  E  E  E E
|---------------------|-----------------------|
|-------5-------5---5-|-(5)---6----6--6-------|
|-(4)---5----4--5---5-|-(5)---5----5--5-------|
|-(5)---5----5--5---5-|-(5)-5-5----5--5----7--|
|-(5)-5-5----5--5---3-|-(3)-3-3----3--3----5--|
|-(3)-3-3----3--3-----|-----------------------|


          ~~~~~~                    ~~~~~~
   E  E E E +Q    E  E     E   E  E E +Q     E E
|----------------------|-------------------------|
|----------------------|-------------------------|
|-10p=9-7-7-(7)---5--7-|--10p==9--7-7-(7)----5-7-|
|----------------------|-------------------------|
|----------------------|-------------------------|
|----------------------|-------------------------|
|
| +E  E E E  E  E E  E    +E   E  E E  E   E E E
|----------------------|-------------------------|
|------------8--7---10-|-(10)----11---11--10-----|
|-------8----7--7---10-|-(10)----10---10--10---4-|
|-(7)-7-7----7--7---10-|-(10)-10-10---10--10---5-|
|-(5)-5-5----5--5----8-|--(8)--8--8----8---8---5-|
|----------------------|-----------------------3-|


          ~~~~~~
   E  E E E +Q     Q      E  E E E +H
|----------------------|----------------------|
|----------------------|----------------------|
|-10--9-7-7-(7)---10---|-10--9-5-5-(5)--------|
|----------------------|----------------------|
|----------------------|----------------------|
|----------------------|----------------------|
|
| +E  E E E  E  E  E E   +E  E E E  E  E E E
|----------------------|----------------------|
|-------5----5-------5-|-(5)---6----6--5------|
|-(4)---5----5--4----5-|-(5)---5----5--5------|
|-(5)---5----5--5----5-|-(5)-5-5----5--5---7--|
|-(5)-5-5----5--5----3-|-(3)-3-3----3--3---5--|
|-(3)-3-3----3--3------|----------------------|


 outro solo
  Gtr IV
         ~~~~~~~~~~~~              ~~~
   E     Q.      +Q     E  S  S    H.              E  S  S
|----------------------13-------|-----------------13-------|
|-13b15-15------(15)------15p13h|=15-----------------15p13h|
|-------------------------------|--------------------------|
|-------------------------------|--------------------------|
|-------------------------------|--------------------------|
|-------------------------------|--------------------------|
|
| Gtr II
|             ~~~~~~~                     ~~~~~~
|  Q.         E  +Q     E  E       Q.     E +Q     E  E
|-------------------------------|--------------------------|
|-------------------------------|--------------------------|
|-10----------7--(7)----5--7----|-10------7-(7)----5--7----|
|-------------------------------|--------------------------|
|-------------------------------|--------------------------|
|-------------------------------|--------------------------|
|
| Gtr III
|  E     E  E E   E  E  E  E      +E  E E E  E  E  E  E
|-------------------------------|--------------------------|
|-----------8--------8----------|-------6-------6----------|
|-----------7--------7----------|-------5-------5-----4----|
|--7-----7--7-----7--7-----5----|-(5)-5-5----5--5-----5----|
|--5-----5--5-----5--5-----3----|-(3)-3-3----3--3-----5----|
|-------------------------------|---------------------3----|


                  ~~~~
   E   Q.        +Q     E  S  S    E   Q.        +Q     E  S  S
|----------------------13-------|----------------------13---------|
|-15--13b15-----(13)------15p13h|=15--13b15-----(13)------15-13---|
|-------------------------------|---------------------------------|
|-------------------------------|---------------------------------|
|-------------------------------|---------------------------------|
|-------------------------------|---------------------------------|
|
|  Q.         E  +E  E  Q          E   E    E E  +Q     E  E
|-------------------------------|---------------------------------|
|-------------------------------|---------------------------------|
|-10----------7--(7)-7-12-------|-10---9----5-5--(5)----5--7------|
|-------------------------------|---------------------------------|
|-------------------------------|---------------------------------|
|-------------------------------|---------------------------------|
|
| +E   E    E E   E  E  E  E      +E   E    E E   E  E  E  E
|-------------------------------|---------------------------------|
|-----------5-----5--------5----|-(5)-------6-----6--5------------|
|-(4)-------5-----5--4-----5----|-(5)-------5-----5--5------------|
|-(5)-------5-----5--5-----5----|-(5)--5----5-----5--5-----7------|
|-(5)--5----5-----5--5-----3----|-(3)--3----3-----3--3-----5------|
|-(3)--3----3-----3--3----------|---------------------------------|


       ~~~~~~~~~~~~~~                  ~~~~~~~~~~~~~~
   E   Q.        +Q     E  S  S    E   Q.        +Q     E  S  S
|----------------------13-------|----------------------13-------|
|-15--13b15-----(13)------15p13h|=15--13b15-----(13)------15p13h|
|-------------------------------|-------------------------------|
|-------------------------------|-------------------------------|
|-------------------------------|-------------------------------|
|-------------------------------|-------------------------------|
|
|             ~~~~~~~                         ~~~~~~~
|  Q.         E  +Q     E  E       Q.         E  +Q     E  E
|-------------------------------|-------------------------------|
|-------------------------------|-------------------------------|
|-10----------7--(7)----5--7----|-10----------7--(7)----5--7----|
|-------------------------------|-------------------------------|
|-------------------------------|-------------------------------|
|-------------------------------|-------------------------------|
|
| +E   E    E E   E  E  E  E      +E   E    E E   E  E  E  E
|-------------------------------|-------------------------------|
|-----------8--------8----------|-------------------------------|
|-----------7--------7-----2----|-(2)-------3--------3-----4----|
|-(7)--7----7-----7--7-----3----|-(3)-------3--------3-----5----|
|-(5)--5----5-----5--5-----3----|-(3)--3----3-----3--3-----5----|
|--------------------------1----|-(1)--1----1-----1--1-----3----|


       ~~~~~~~~~~~~~~
   E   Q.        +Q     E  S  S
|----------------------13---------|
|-15--13b15-----(13)------15p13h==|
|---------------------------------|
|---------------------------------|
|---------------------------------|
|---------------------------------|
|
|  Q.         E  +Q     E  E
|---------------------------------|
|---------------------------------|
|-10----------7--(7)----5--7------|
|---------------------------------|
|---------------------------------|
|---------------------------------|
|
| +E   E    E E   E  E  E  E
|---------------------------------|
|-----------5--------5-----5------|
|-(4)-------5--------5-----5------|
|-(5)-------5--------5-----5------|
|-(5)--5----5-----5--5-----5------|
|-(3)--3----3-----3--3-----3------|


       ~~~~~~~~~~~~
   E   Q.      +Q.      E        +E   E  E  E  E   S  S  E  S  S
|----------------------15b17==|=(15)-15-15-15-15r-15p13-15-13----|
|-15--13------(13)------------|-------------------------------15-|
|-----------------------------|----------------------------------|
|-----------------------------|----------------------------------|
|-----------------------------|----------------------------------|
|-----------------------------|----------------------------------|
|
|                                           ~~~~~~
|  E   E  E E  +Q    E  E         E   E  E  E +Q         E  E
|-----------------------------|----------------------------------|
|-----------------------------|----------------------------------|
|-10---9--5-5--(5)---5--7-----|--10p==9--7--7-(7)--------5--7----|
|-----------------------------|----------------------------------|
|-----------------------------|----------------------------------|
|-----------------------------|----------------------------------|
|
|  E   E  E E   E  E E  E        +E   E  E  E  E   E     E  E
|-----------------------------|----------------------------------|
|-(5)-----6-----6--6----------|----------8-----8---7-------------|
|-(5)-----5-----5--5----------|----------7-----7---7-------------|
|--5---5--5-----5--5----7-----|--(7)--7--7-----7---7--------5----|
|--3---3--3-----3--3----5-----|--(5)--5--5-----5---5--------3----|
|-----------------------------|----------------------------------|


   E      E  E  E  E   S  S  E  E
|-15b17==15-15-15-15r-15p13-15-13--|
|----------------------------------|
|----------------------------------|
|----------------------------------|
|----------------------------------|
|----------------------------------|
|
|               ~~~~~~
|  E      E  E  E +Q         E  E
|----------------------------------|
|----------------------------------|
|-10p=====9--7--7-(7)--------5--7--|
|----------------------------------|
|----------------------------------|
|----------------------------------|
|
| +E      E  E  E  E   E     E  E
|----------------------------------|
|------------6-----6---5-----------|
|------------5-----5---5--------4--|
|-(5)-----5--5-----5---5--------5--|
|-(3)-----3--3-----3---3--------5--|
|-------------------------------3--|


   E      S  S  E  E  E   E  E  E    E   S  S  E  E  Q     E  E
|-15b17==15-15-15-15-15--15-15-15-|-15r-15-13----13----------------|
|---------------------------------|-----------15----15\---13-13b15r|
|---------------------------------|--------------------------------|
|---------------------------------|--------------------------------|
|---------------------------------|--------------------------------|
|---------------------------------|--------------------------------|
|
|                  ~~~~~~
|  E      E     E  E +Q      E  E    E   E     E  E  E  E  E  E
|---------------------------------|--------------------------------|
|---------------------------------|--------------------------------|
|-10p=====9-----7--7-(7)-----5--7-|-10p==9-----7--9-10S12-10S=9----|
|---------------------------------|--------------------------------|
|---------------------------------|--------------------------------|
|---------------------------------|--------------------------------|
|
| +E      E     E  E  E   E  E  E   +E   E     E  E  E  E  E  E
|---------------------------------|--------------------------------|
|---------------5---------5-----5-|-(5)--------6-----6--6----------|
|-(4)-----------5-----4---5-----5-|-(5)--------5-----5--5----------|
|-(5)-----------5-----5---5-----5-|-(5)--5-----5-----5--5-----7----|
|-(5)-----5-----5-----5---5-----3-|-(3)--3-----3-----3--3-----5----|
|-(3)-----3-----3-----3---3-------|--------------------------------|


   +E   E  E     E  E     E  E  E     E     E  E  E  E     E  E     S  S
|------13-------13-------13-13-13-|--------13-13-13-------13-------13-13-|
|-(13)----13b15----13b15-15-15-15-|--13b15----15-15-13b15----13b15-------|
|---------------------------------|--------------------------------------|
|---------------------------------|--------------------------------------|
|---------------------------------|--------------------------------------|
|---------------------------------|--------------------------------------|
|
|                ~~~~~~~~                         ~~~~~~~~
|   E   E  E     E +Q        E  E     E     E  E  E +Q        E     E
|---------------------------------|--------------------------------------|
|---------------------------------|--------------------------------------|
|--10p==9--7-----7-(7)-------5--7-|--10p====9--7--7-(7)-------5-----7----|
|---------------------------------|--------------------------------------|
|---------------------------------|--------------------------------------|
|---------------------------------|--------------------------------------|
|
|  +E   E  E     E  E     E  E  E    +E     E  E  E  E     E  E     E
|---------------------------------|--------------------------------------|
|-------------------8-----7----10-|-(10)------11----11----10-------------|
|----------8--------7-----7----10-|-(10)------10----10----10--------4----|
|--(7)--7--7--------7-----7----10-|-(10)---10-10----10----10--------5----|
|--(5)--5--5--------5-----5-----8-|--(8)----8--8-----8-----8--------5----|
|---------------------------------|---------------------------------3----|


   E     S  S  E     S  S  E     +E   E  E
|-------13-13-------13-13------------13-13-|
|-13b15-------13b15-------13b15r(13)-------|
|------------------------------------------|
|------------------------------------------|
|------------------------------------------|
|------------------------------------------|
|
|                    ~~~~~~~~~~~~
|  E     E     E     E    +Q          Q
|------------------------------------------|
|------------------------------------------|
|-10-----9-----7-----7----(7)--------10----|
|------------------------------------------|
|------------------------------------------|
|------------------------------------------|
|
| +E     E     E     E     E      E   E  E
|------------------------------------------|
|--------------5-----------5-------------5-|
|-(4)----------5-----------5------4------5-|
|-(5)----------5-----------5------5------5-|
|-(5)----5-----5-----------5------5------3-|
|-(3)----3-----3-----------3------3--------|


                                    ~~~
   E     E  E  E  E   E  E  S  S    W
|-15b17r15-17-15-17--15-17-15p13-|--------|
|--------------------------------|-15-----|
|--------------------------------|--------|
|--------------------------------|--------|
|--------------------------------|--------|
|--------------------------------|--------|
|
|  E     E  E  E +H                +W
|--------------------------------|--------|
|--------------------------------|--------|
|-10-----9--5--5-(5)-------------|-(5)----|
|--------------------------------|--------|
|--------------------------------|--------|
|--------------------------------|--------|
|
| +E     E  E  E  E   E  E  E      +W
|--------------------------------|--------|
|-(5)-------6-----6---5----------|--------|
|-(5)-------5-----5---5----------|--------|
|-(5)----5--5-----5---5-----7----|-(7)----|
|-(3)----3--3-----3---3-----5----|-(5)----|
|--------------------------------|--------|




--------------------------------------------------------------------------------


Duration Legend
---------------
W - whole; H - half; Q - quarter; E - 8th; S - 16th; T - 32nd; X - 64th; a - acciaccatura
+ - note tied to previous; . - note dotted; .. - note double dotted
Uncapitalized letters represent notes that are staccato (1/2 duration)
Irregular groupings are notated above the duration line
Duration letters will always appear directly above the note/fret number it represents the
duration for.  Duration letters with no fret number below them represent rests.  Multi-
bar rests are notated in the form Wxn, where n is the number of bars to rest for.  Low
melody durations appear below the staff

Tablature Legend
----------------
 h   - hammer-on
 p   - pull-off
 b   - bend
 pb  - pre-bend
 r   - bend release (if no number after the r, then release immediately)
 /\  - slide into or out of (from/to "nowhere")
 s   - legato slide
 S   - shift slide
 - natural harmonic
[n]  - artificial harmonic
n(n) - tapped harmonic
 ~   - vibrato
 tr  - trill
 T   - tap
 TP  - trem. picking
 PM  - palm muting
\n/  - tremolo bar dip; n = amount to dip
 \n  - tremolo bar down
 n/  - tremolo bar up
/n\  - tremolo bar inverted dip
 =   - hold bend; also acts as connecting device for hammers/pulls
 <> - volume swell (louder/softer)
 x   - on rhythm slash represents muted slash
 o   - on rhythm slash represents single note slash

Misc Legend
-----------
 |  - bar
||  - double bar
||o - repeat start
o|| - repeat end
*|  - double bar (ending)
 :  - bar (freetime)
 $  - Segno
 &  - Coda
Tempo markers -  = BPM(8/16=s8/s16), where s8 = swing 8ths, s16 = swing 16ths



--------------------------------------------------------------------------------

** Generated using Power Tab Editor by Brad Larsen: The Official Power Tab Web Site

            
            
Suggest correction
Creating personal tab
Creating personal tab
You can edit any tab online and save it as your Personal.

You can edit, replace or remove any tab part or add personal notes – all changes will be seen only by you.

Personal tabs can be accessed anytime from any device, even offline.
Learn more »
Give kudos to tab author, rate the tab!
1 2 3 4 5
comments
print report bad tab
1 comment total.
0 reply
jacksonsrule 10 Jul 12, 2011 05:33 AM

the intro is wrong dude

guest
You may want to rate the tab now too:
select rating
Wanna post a correction for this tab? Suggest correction