Oops, an error
Loading. Please wait.
We have an official She Sells Sanctuary tab made by UG professional guitarists. Check out the tab »
×
57,124 views 147 this week
8 commentsread comments
1 2 3 4 5
x 54
add to favorites
×
Save as Personal and add changes to this tab that will be seen only by you. Learn more ›
×
You can save this tab as Personal to edit and correct it or add notes. All changes will be seen only by you. Learn more »
launch autoscroll
font size
0
reset
transpose
0
reset
display chords
guitar tuner
backing track
0:00
0:00
edit
Autoscroll
slow
fast
+/-
esc
set tempo
stop
Author
Strumming
There is no strumming pattern for this song yet. and get +5 IQ
RIFF

e|--5-5-5--3-2-------------------------------------|                       
B|-------------8-7-3-3-3-1-3-1-3-1-3-------3-------|
G|-------------------------------------2-----------|
D|-------------------------------------------------|
A|-------------------------------------------------|
E|-------------------------------------------------|


[Verse 1]

    D                   C           G       
OH THE HEADS THAT TURN MAKE MY BACK BURN 

      D                    C                         G 
AND THOSE HEADS THAT TURN MAKE MY BACK MAKE MY BACK BURN

    D                    C         G
THE SPARKLE IN YOUR EYES KEEP ME ALIVE

     D                        C       G   
AND THE SPARKLE IN YOUR EYES KEEP ME ALIVE


[Bridge]

           D           C             G 
AND THE WORLD AND THE WORLD TURNS AROUND 


          D             C           G
AND THE WORLD AND THE WORLD YEAH...YEAH


        D               G 
OH THE WORLD DRAGS ME DOWN
 

e|--5-5-5--3-2-------------------------------------|                       
B|-------------8-7-3-3-3-1-3-1-3-1-3-------3-------|
G|-------------------------------------2-----------|
D|-------------------------------------------------|
A|-------------------------------------------------|
E|-------------------------------------------------|


[Verse 2]

   D                    C            G
OH THE HEADS THAT TURN MAKE MY BACK BURN

     D                     C                         G
AND THOSE HEADS THAT TURN MAKE MY BACK MAKE MY BACK BURN

 
e|--5-5-5--3-2-------------------------------------|                       
B|-------------8-7-3-3-3-1-3-1-3-1-3-------3-------|
G|-------------------------------------2-----------|
D|-------------------------------------------------|
A|-------------------------------------------------|
E|-------------------------------------------------|

    D                  C        G
THE FIRE IN YOUR EYES KEEP ME ALIVE

   D                       C       G
AND THE FIRE IN YOUR EYES KEEP ME ALIVE

    D                             C
AND IM SURE IN HER YOU'LL FIND....SANCTUARY

    D                           C
IM SURE IN HER YOU'LL FIND.....SANCTUARY


[Chorus]

         D          C          G
AND THE WORLD THE WORLD TURNS AROUND

         D              C              G
AND THE WORLD AND THE WORLD DRAGS ME DOWN


(riff to finish)
Suggest correction
Creating personal tab
Creating personal tab
You can edit any tab online and save it as your Personal.

You can edit, replace or remove any tab part or add personal notes – all changes will be seen only by you.

Personal tabs can be accessed anytime from any device, even offline.
Learn more »
comments
print report bad tab
8 comments total. Showing first comments.
+2 reply
lucien1 41 Apr 30, 2013 06:57 AM

Thanks for making a simple version of she sells sanctuary. It still sounds a lot like the song :-)

+1 reply
samanthabaxley 10 Nov 09, 2013 03:05 PM

love this song :)

+1 reply
chewy44 138 Jun 04, 2015 10:30 AM

This works, There's just some chord placing a little off for those who are struggling with it.....

It should be
D C G
OH THE HEADS THAT TURN MAKE MY BACK BURN

This is throughout on certain lines, hope this helps anyone who couldn't get it.

And maybe this is the reason for only four stars

Nice tab though, great song!!!'

guest
You may want to rate the tab now too:
select rating
Wanna post a correction for this tab? Suggest correction