Oops, an error
Loading. Please wait.

Disappointment chords

16 views 3 this week
no commentswrite comment
1 2 3 4 5
3 more votes to show rating
add to favorites
×
Save as Personal and add changes to this tab that will be seen only by you. Learn more ›
×
You can save this tab as Personal to edit and correct it or add notes. All changes will be seen only by you. Learn more »
launch autoscroll
font size
0
reset
transpose
0
reset
display chords
guitar tuner
edit
Autoscroll
slow
fast
+/-
esc
set tempo
stop
Author
Difficulty
Strumming
There is no strumming pattern for this song yet. and get +5 IQ
[Intro] x2

    Bb                 Bb                  Bb                 Bb
e|------------------|-------------------|------------------|------------------|
B|------------------|-------------------|------------------|------------------|
G|------8---7---5---|------8---7--5-5-5-|------8---7---5---|------8---7---5---|
D|--8---------------|--8----------------|------------------|--8---------------|
A|------------------|-------------------|------------------|------------------|
E|------------------|-------------------|------------------|------------------|


    Gm                 Gm                  Gm                 Gm
e|------------------|-------------------|------------------|------------------|
B|------------------|-------------------|------------------|------------------|
G|------8---7---5---|------8---7--5-5-5-|------8---7---5---|------8---7---5---|
D|--8---------------|--8----------------|------------------|--8---------------|
A|------------------|-------------------|------------------|------------------|
E|------------------|-------------------|------------------|------------------|
 
 
[Verse]

  Bb
  Pictures of you

Gm             Eb
  setting fire to pictures of me

  Bb
  All those nights awake 

Gm                 Eb
  waiting for the sun to rise on


[Instrumental]

Play Intro once


[Verse]

  Bb 
  Black and white memories

Gm                Eb
  of your little house

  Bb
  Where we spent all 
  
Gm                     Eb
  the time we had to throw away


[Chorus]

Ab                               Gm
  Life could be taken from your hands

Ab                                Gm
  You've been patient then disenchanted

Ab                               Gm
  None can hurt you when you're dead

Ab                          Eb
  But I was told it too late


[Verse]

  Bb              Gm
  Waiting for you to 

                     Eb
  reveal yourself to me and make my day

  Bb
  Feelin' so bad 

Gm                      Eb
  standing in your backyard alone


[Outro]

    Bb                 Bb                  Bb                 Bb
e|------------------|-------------------|------------------|------------------|
B|------------------|-------------------|------------------|------------------|
G|------8---7---5---|------8---7--5-5-5-|------8---7---5---|------8---7---5---|
D|--8---------------|--8----------------|------------------|--8---------------|
A|------------------|-------------------|------------------|------------------|
E|------------------|-------------------|------------------|------------------|


    Bb                 Bb                  Bb                 Bb
e|------------------|-------------------|------------------|-------------------|
B|------------------|-------------------|------------------|-------------------|
G|------8---7---5---|------8---7--5-5-5-|------8---7---5---|------8---7--5-5-5-|
D|--8---------------|--8----------------|------------------|--8----------------|
A|------------------|-------------------|------------------|-------------------|
E|------------------|-------------------|------------------|-------------------|
Suggest correction
Creating personal tab
Creating personal tab
You can edit any tab online and save it as your Personal.

You can edit, replace or remove any tab part or add personal notes – all changes will be seen only by you.

Personal tabs can be accessed anytime from any device, even offline.
Learn more »
Give kudos to tab author, rate the tab!
1 2 3 4 5
comments
print report bad tab
guest
You may want to rate the tab now too:
select rating
Wanna post a correction for this tab? Suggest correction