Oops, an error
Loading. Please wait.

I Drink Alone Tab

2,225 views 3 this week
no commentswrite comment
1 2 3 4 5
excellent!
x 1
add to favorites
launch autoscroll
font size
0
reset
how to read this tab
guitar tuner
Tab Pro tools
  • play this tab
  • loop segment
  • change instrument
  • show fretboard
  • metronome
Autoscroll
slow
fast
+/-
esc
set tempo
stop
Contributor
Difficulty
Tuning
intermediate
C G C F A D
-------------------------------------------------------------------------------
                         I DRINK ALONE - The Cumshots
-------------------------------------------------------------------------------
Tabbed by: Kergash
Email: h_waldum@hotmail.com

Tuning: Drop C

So this is the song I Drink Alone by the norwegian band called The Cumshots. 
I thought this song was cool and wanted to play it, but I find it easier to 
learn it when I make the tablature as well. So here it is, the song can be 
found here; http://www.youtube.com/watch?v=O8Qugtp90NU

Find anything wrong? Don't hesitate to comment. :)

Intro:

Guitar 1: This comes in after the bass-intro, at about 0:07
d|17b18br17------------------------------------------------------------------|
A|----------13h15-15-13-13-8h10-10-8h11-11-11-8-11-10-8-10----------------18-|
F|------------------------------------------------------------------1417-----|
C|-----------------------------------------------------------141517----------|
G|---------------------------------------------------------17----------------|
C|---------------------------------------------------------------------------|

d|-----------------------13-8h10-10r\----------------------------------------|
A|15r-13r-10r-8h11-11-11-----------------------------------------------------|
F|---------------------------------------------------------------------------|
C|---------------------------------------------------------------------------|
G|---------------------------------------------------------------------------|
C|---------------------------------------------------------------------------|

Guitar 2:
d|---------------------------------------------------------------------------|
A|---------------------------------------------------------------------------|
F|---------------------------------------------------------------------------|
C|77-X-55-X-22-X-3-333-77-X-55-X-22------------------------------------------|
G|55-X-33-X-00-X-1-111-55-X-33-X-00-0123-------------------------------------|
C|---------------------------------------------------------------------------|x2
PM|                                 ----

Verse 1:

Both Guitars:
d|---------------------------------------------------------------------------|
A|---------------------------------------------------------------------------|
F|---------------------------------------------------------------------------|
C|------6----6---6----6----7---------6----6---6----6-------------------------|
G|3h5---5----5---5----5----5---3h5---5----5---5----5-------------------------|
C|----0---00---0---00---00---0-----0---00---0---00---0-032-------------------|x2
PM|   -   --   -   --   --   -     -   --   -   --   - ---

Verse 2:

Both guitars:
d|-----------------------------------|--------------------|------------------|
A|-----------------------------------|---1st ending-------|-2nd ending-------|
F|-----------------------------------|--------------------|------------------|
C|-----------6---6----6----7---------|---6---6----6-------|------------------|
G|------3----5---5----5----5-------3-|---5---5----5-------|------------------|
C|2h3-0-3-00---0---00---00---2h3-0-3-|00---0---00---0-032-|-0320-------------|x2
PM|   -   --   -   --   --       -    --   -   --   - ---   ----

PRE-CHORUS:

Guitar 1:
d|---------------------------------------------------------------------------|
A|---------------------------------------------------------------------------|
F|----0r----0r------------------------5r------0r-----------------------------|
C|--3r----2r-------5r----5r---------3r------2r------5r------5r---------------|
G|1r----0r-------5r----3r---------1r------0r------5r------3r-----------------|
C|-------------5r----3r------3235---------------5r------3r-----3235----------|x2

Guitar 2:
d|---------------------------------------------------------------------------|
A|---------------------------------------------------------------------------|
F|---------------------------------------------------------------------------|
C|---------------------------------------------------------------------------|
G|8--7--5--3------8--7--5--3-------------------------------------------------|
C|8--7--5--3-3235-8--7--5--3-3235--------------------------------------------|x2

CHORUS:

Guitar 1:
d|---------------------------------------------------------------------------|
A|---------------------------------------------------------------------------|
F|---------------------------------------------------------------------------|
C|3-3-333-----8-----8---8----7----7---7----10----10---10---------------------|
G|1-1-111--------------------------------------------------------------------|
C|--------5-5---55----5---00---00---0---00----00----0------------------------|x4
PM|             --    -   

Guitar 2:
d|---------------------------------------------------------------------------|
A|---------------------------------------------------------------------------|
F|---------------------------------------------------------------------------|
C|3-3-333----------------------------3-3-333---------------------------------|
G|1-1-111-5-55-5555-0-0-000000000000-1-1-111-5-55-5555-0-0-000000000000------|
C|--------5-55-5555-0-0-000000000000---------5-55-5555-0-0-000000000000------|x2

Bridge:

Guitar 1: The first bend is nasty, not a half step bend, more like 1/4 or so.
d|--15b-----------------------------------------------------------14-15r--16r|
A|--14b------------------------------------15---------14-17-18r---15-15r--15r|
F|--------------------------------------------14----14-----------------------|
C|--------12-121212-12-121212-12-121212----------12--------------------------|
G|---------------------------------------------------------------------------|
C|---------------------------------------------------------------------------|
PM|       -- ------ -- ------ -- ------

Guitar 2:
d|---------------------------------------------------------------------------|
A|---------------------------------------------------------------------------|
F|---------------------------------------------------------------------------|
C|-------6----6----6-----------6-----6----------------6-----6-----6----------|
G|3h5----5----5----5---3h5-----5-----5--------3h5-----5-----5-----5----------|
C|----00---00---00---0-----000---000---000-32-----000---000---000---0--------|
PM|   --   --   --   -     ---   ---   --- --     ---   ---   ---   -

d|---------------------------------------------------------------------------|
A|---------------------------------------------------------------------------|
F|---------------------------------------------------------------------------|
C|--------6-----6------------------------------------------------------------|
G|3h5-----5-----5------------------------------------------------------------|
C|----000---000---000-32-----------------------------------------------------|
PM|   ---   ---   --- --

Verse 3:

You need to listen here to get the timing straight. 

Guitar 1: (Let the note from the bridge ring here)
d|------------------------------------------------------------------15~-20-15|
A|-------------------------------13-14pb15pbr14b15-14-15-17b18~---15---------|
F|------------------------131415---------------------------------------------|
C|---------------------------------------------------------------------------|
G|---------------------------------------------------------------------------|
C|---------------------------------------------------------------------------|

Guitar 2:
d|---------------------------------------------------------------------------|
A|---------------------------------------------------------------------------|
F|---------------------------------------------------------------------------|
C|------6r~----------8r~-----------------------------------------------------|
G|3h5---5r~----3h5---5r~-----------------------------------------------------|
C|----0------------0---------------------------------------------------------|

PRE-CHORUS:

Guitar 1: Continues the solo from the third verse.
d|17~-151315b17~-------------------------------------------------------------|
A|-------------------------Alright, so here does alot of shit, and I couldnt |
F|-------------------------figure it out at all. Its really hard to hear what|
C|-------------------------he's playing. So any help would be nice.----------|
G|---------------------------------------------------------------------------|
C|---------------------------------------------------------------------------|

Guitar 2:
d|---------------------------------------------------------------------------|
A|---------------------------------------------------------------------------|
F|----0r----0r------------------------5r------0r-----------------------------|
C|--3r----2r-------5r----5r---------3r------2r------5r------5r---------------|
G|1r----0r-------5r----3r---------1r------0r------5r------3r-----------------|
C|-------------5r----3r------3235---------------5r------3r-----3235----------|x2

CHORUS:

Guitar 1:
d|---------------------------------------------------------------------------|
A|---------------------------------------------------------------------------|
F|---------------------------------------------------------------------------|
C|3-3-333-----8-----8---8----7----7---7----10----10---10---------------------|
G|1-1-111--------------------------------------------------------------------|
C|--------5-5---55----5---00---00---0---00----00----0------------------------|x4
PM|             --    -   

Guitar 2:
d|---------------------------------------------------------------------------|
A|---------------------------------------------------------------------------|
F|---------------------------------------------------------------------------|
C|3-3-333----------------------------3-3-333---------------------------------|
G|1-1-111-5-55-5555-0-0-000000000000-1-1-111-5-55-5555-0-0-000000000000------|
C|--------5-55-5555-0-0-000000000000---------5-55-5555-0-0-000000000000------|x2

Bridge:

Both guitars: 
d|----------------------------|--------------------|-------------------------|
A|Play this 7 times, then do;-|8th ending:---------|-------------------------|
F|----------------------------|--------------------|-------------------------|
C|77-X-5-5-X-22-X-3-33--------|77---5-5---22-------|-------------------------|
G|55-X-3-3-X-00-X-1-11--------|55-X-3-3-X-00-------|-------------------------|
C|----------------------------|--------------0320--|-------------------------|
PM|                                          ----

PRE-CHORUS:

Guitar 1:
d|---------------------------------------------------------------------------|
A|---------------------------------------------------------------------------|
F|----0r----0r------------------------5r------0r-----------------------------|
C|--3r----2r-------5r----5r---------3r------2r------5r------5r---------------|
G|1r----0r-------5r----3r---------1r------0r------5r------3r-----------------|
C|-------------5r----3r------3235---------------5r------3r-----3235----------|x2

Guitar 2:
d|---------------------------------------------------------------------------|
A|---------------------------------------------------------------------------|
F|---------------------------------------------------------------------------|
C|---------------------------------------------------------------------------|
G|8--7--5--3------8--7--5--3-------------------------------------------------|
C|8--7--5--3-3235-8--7--5--3-3235--------------------------------------------|x2

CHORUS:

Guitar 1:
d|---------------------------------------------------------------------------|
A|---------------------------------------------------------------------------|
F|---------------------------------------------------------------------------|
C|3-3-333-----8-----8---8----7----7---7----10----10---10---------------------|
G|1-1-111--------------------------------------------------------------------|
C|--------5-5---55----5---00---00---0---00----00----0------------------------|x4
PM|             --    -   

Guitar 2:
d|---------------------------------------------------------------------------|
A|---------------------------------------------------------------------------|
F|---------------------------------------------------------------------------|
C|3-3-333----------------------------3-3-333---------------------------------|
G|1-1-111-5-55-5555-0-0-000000000000-1-1-111-5-55-5555-0-0-000000000000------|
C|--------5-55-5555-0-0-000000000000---------5-55-5555-0-0-000000000000------|x2

Chorus variation:

Guitar 1:
d|------------------------------------------------------------16-17b18-------|
A|14b15-14b15-12----------18r-------------------------------18---------15~---|
F|---------------15-14-15------14-14b15br14-12\10-12~-----19-----------------|
C|---------------------------------------------------------------------------|
G|---------------------------------------------------------------------------|
C|---------------------------------------------------------------------------|

d|---------------------------------------------------------------------------|
A|17b18-15b16--THen a lot of shit, yet again, but ending with: 15r~~---------|
F|---------------------------------------------------------------------------|
C|---------------------------------------------------------------------------|
G|---------------------------------------------------------------------------|
C|---------------------------------------------------------------------------|

Guitar 2:
d|---------------------------------------------------------------------------|
A|---------------------------------------------------------------------------|
F|---------------------------------------------------------------------------|
C|3-3-333----------------------------3-3-333---------------------------------|
G|1-1-111-5-55-5555-0-0-000000000000-1-1-111-5-55-5555-0-0-000000000000------|
C|--------5-55-5555-0-0-000000000000---------5-55-5555-0-0-000000000000------|x2

Ending:

Guitar 1: Keeps the note from the chorus variation, joins the last riff after G2 does it once.
d|----------|----------------------------------------------------------------|
A|15r~~-----|----------------------------------------------------------------|
F|----------|----------------------------------------------------------------|
C|----------|7-----7---6-----6-5-----5---4-----4-----------------------------|
G|----------|5-----5---5-----5-5-----5---5-----5-----------------------------|
C|----------|--000---0---000--0--000---0---000---0---------------------------|


Guitar 2: On the last run, let the last note ring.
d|---------------------------------------------------------------------------|
A|---------------------------------------------------------------------------|
F|---------------------------------------------------------------------------|
C|7-----7---6-----6-5-----5---4-----4----------------------------------------|
G|5-----5---5-----5-5-----5---5-----5----------------------------------------|
C|--000---0---000--0--000---0---000---0--------------------------------------|x3


************************************

| r   let ring
| /   slide up
| \   slide down
| h   hammer-on
| p   pull-off
| ~   vibrato
| +   harmonic
| x   Mute note
| b   Bend
| pb  Pre-bend
| br  Bend release
| pbr Pre-bend release
| brb Bend release bend

************************************
comments
We did not receive enough feedback on this tab! Please rate:
print report bad tab
1 2 3 4 5
I want to post or [tab]
guest
You may want to rate the tab now too:
select rating
Please do not post tabs as comments. Select "correction" instead!