Oops, an error
Loading. Please wait.

10-15 Saturday Night Tab

version 4
version 4

Whole song

Interactive

9,481 views 9 this week
no commentswrite comment
1 2 3 4 5
excellent!
x 7
add to favorites
launch autoscroll
font size
0
reset
how to read this tab
guitar tuner
Tab Pro tools
  • play this tab
  • loop segment
  • change instrument
  • show fretboard
  • metronome
×
Best way to learn
"10-15 Saturday Night"
Autoscroll
slow
fast
+/-
esc
set tempo
stop
Contributor
10:50 saturday night

The Cure

Intro

e---------------------------------------------------------|
B-6-6-6-6-6-6-6666-5-5-5-5-5-5-5555-3-3-3-3-3-3-5555------|
G-7-7-7-7-7-7-7777-7-7-7-7-7-7-7777-3-3-3-3-3-3-5555------|
D---------------------------------------------------------|
A---------------------------------------------------------|
E---------------------------------------------------------|


e----------------------------------|
B----------------------------------|
G-7*------7*----7*-----------------|
D-----7*------7*-------------------|
A----------------------------------|
E----------------------------------|

Am G Am G Am G (listen for timing)


Verse

   F                               E       (try to hit the higher strings, down strokes)

e--1---1---1---1---1---1---1---1---0-0-0-0-0-0-0-0-|
B--1---1---1---1---1---1---1---1---0-0-0-0-0-0-0-0-|
G--2---2---2---2---2---2---2---2---1-1-1-1-1-1-1-1-|
D-(3)-(3)-(3)-(3)-(3)-(3)-(3)-(3--(2)--------------|
A-(3)-(3)-(3)-(3)-(3)-(3)-(3)-(3)-(2)--------------|
E-(1)-(1)-(1)-(1)-(1)-(1)-(1)-(1)-(0)....----------|
                   Waiting for the telephone to ring...

Intro again

Solo
                  2x                                         2x
e-------------------I-------------I----13-13--13--12-12--12--|I
B-7b9---------------I-7b9r7-------I----13---13----12---12----|I
G-7b9-7-5--7-5------I-7b9r7-5-4-5-I--14---------13-----------|I
D--------------7-5-7I-------------I--------------------------|I
A-------------------I-------------I--------------------------|I
E-------------------I-------------I--------------------------|I

Outro (with an octaver
e----------------------------------------------|
B----------------------------------------------|
G----------------------------------7*---7*--7--|
D-----------5-------5-7--------------7*---7*---|
A-5-7-8-7-8---8-7-8-----7-8-7-5-3--------------|
E----------------------------------------------|
comments
print report bad tab
I want to post or [tab]
guest
You may want to rate the tab now too:
select rating
Please do not post tabs as comments. Select "correction" instead!