Oops, an error
Loading. Please wait.

10 15 Saturday Night bass

version 1
version 1

Whole song

Interactive

28 views 1 this week
no commentswrite comment
1 2 3 4 5
3 more votes to show rating
add to favorites
×
Save as Personal and add changes to this tab that will be seen only by you. Learn more ›
×
You can save this tab as Personal to edit and correct it or add notes. All changes will be seen only by you. Learn more »
launch autoscroll
font size
0
reset
guitar tuner
backing track
0:00
0:00
edit
Autoscroll
slow
fast
+/-
esc
set tempo
stop
Artist: The Cure 
Song: "10:15 Saturday night"
Album: Three Imaginary Boys (1979)

Tabbed by Leo Chiurco

(Starts at around 0:17)

[Intro]
G|---------------------------------|
D|-------------------------12\-----|
A|---------------------------------|
E|---------------------------------|
   1 + + + 2 + + + 3 + + + 4 + + +  

G|---------------------------------|---------------------------------|
D|---------------------------------|---------------------------------|
A|-5.------5.------5.------5.------|-5.------5.------5.------5.------| (x5)
E|---------------------------------|---------------------------------|
   1 + + + 2 + + + 3 + + + 4 + + +   1 + + + 2 + + + 3 + + + 4 + + +

G|---------------------------------|---------------------------------|
D|---------------------------------|---------------------------------|
A|-5.------5.------5.------5.------|-5.------5-------5-------5\------|
E|---------------------------------|---------------------------------|
   1 + + + 2 + + + 3 + + + 4 + + +   1 + + + 2 + + + 3 + + + 4 + + +

G|---------------------------------|---------------------------------|
D|---------------------------------|---------------------------------|
A|---------------------------------|---------------------------------|
E|-5.------5.------5---5.----------|-3.----------3.----------3.------|
   1 + + + 2 + + + 3 + + + 4 + + +   1 + + + 2 + + + 3 + + + 4 + + +

G|---------------------------------|---------------------------------|
D|---------------------------------|---------------------------------|
A|---------------------3.----------|---------------------------------|
E|-5.------5.------5-------5.------|-3.----------3.----------3.------|
   1 + + + 2 + + + 3 + + + 4 + + +   1 + + + 2 + + + 3 + + + 4 + + +

G|---------------------------------|---------------------------------|
D|---------------------------------|---------------------------------|
A|---------------------------------|---------------------------------|
E|-5.------5.------5---5.----------|-3.----------3.----------3.------|
   1 + + + 2 + + + 3 + + + 4 + + +   1 + + + 2 + + + 3 + + + 4 + + +

G|---------------------------------|---------------------------------|
D|---------------------------------|---------------------------------|
A|---------------------------------|---------------------------------|
E|-5.------5.------5---5.----------|-3.------3.------5-------3-------|
   1 + + + 2 + + + 3 + + + 4 + + +   1 + + + 2 + + + 3 + + + 4 + + +

[Verse 1] "10:15 on a saturday night ..."
G|---------------------------------|---------------------------------|
D|---------------------------------|---------------------------------|
A|---------------------------------|---------------------------------|    |
E|-1.------1.------1.------1.------|-1.------1.------1.------1.------|    |
   1 + + + 2 + + + 3 + + + 4 + + +   1 + + + 2 + + + 3 + + + 4 + + +      |
                                                                          | (x2)
G|---------------------------------|---------------------------------|    |
D|---------------------------------|---------------------------------|    |
A|---------------------------------|---------------------------------|    |
E|-0.------0.------0.------0.------|-0.------0.------0.------0-------|
   1 + + + 2 + + + 3 + + + 4 + + +   1 + + + 2 + + + 3 + + + 4 + + +

G|---------------------------------|---------------------------------|
D|---------------------------------|---------------------------------|
A|---------------------------------|---------------------------------|    
E|-1.------1.------1.------1.------|-1.------1.------1.------1.------|    
   1 + + + 2 + + + 3 + + + 4 + + +   1 + + + 2 + + + 3 + + + 4 + + +      
                                                                          
G|---------------------------------|---------------------------------|    
D|---------------------------------|-----2.------2.------------------|    
A|---------------------------------|-----------------2.---2.---------|    
E|-0.------0.------0.------0.------|-0.--------------------------0---|
   1 + + + 2 + + + 3 + + + 4 + + +   1 + + + 2 + + + 3 + + + 4 + + +

G|---------------------------------|---------------------------------|
D|---------------------------------|---------------------------------|
A|---------------------------------|---------------------------------|    
E|-1.------1.------1.------1.------|-1.------1.------3-------1-------|    
   1 + + + 2 + + + 3 + + + 4 + + +   1 + + + 2 + + + 3 + + + 4 + + +   

G|---------------------------------|---------------------------------|    
D|---------------------------------|---------------------------------|    
A|---------7---------------7-------|---------7---------------12\-----|    
E|-0---------------0---------------|-0---------------0---------------|
   1 + + + 2 + + + 3 + + + 4 + + +   1 + + + 2 + + + 3 + + + 4 + + +

[Pre-verse 1] (1:07)
G|---------------------------------|---------------------------------|
D|---------------------------------|---------------------------------|
A|-5.------5.------5.------5.------|-5.------5.------5.------5.------| (x6)
E|---------------------------------|---------------------------------|
   1 + + + 2 + + + 3 + + + 4 + + +   1 + + + 2 + + + 3 + + + 4 + + +

G|---------------------------------|---------------------------------|
D|---------------------------------|---------------------------------|
A|---------------------------------|---------------------------------| (x3)
E|-5.------5.------5---5.----------|-3.----------3.----------3.------|
   1 + + + 2 + + + 3 + + + 4 + + +   1 + + + 2 + + + 3 + + + 4 + + +

G|---------------------------------|---------------------------------|
D|---------------------------------|---------------------------------|
A|---------------------------------|---------------------------------|
E|-5.------5.------5---5.----------|-3.------3---3.--5-------3-------|
   1 + + + 2 + + + 3 + + + 4 + + +   1 + + + 2 + + + 3 + + + 4 + + +

[Verse 2] "Waiting for the telephone to ring ..."
G|---------------------------------|---------------------------------|
D|---------------------------------|---------------------------------|
A|---------------------------------|---------------------------------|    |
E|-1.------1.------1.------1.------|-1.------1.------1.------1.------|    |
   1 + + + 2 + + + 3 + + + 4 + + +   1 + + + 2 + + + 3 + + + 4 + + +      |
                                                                          | (x2)
G|---------------------------------|---------------------------------|    |
D|---------------------------------|---------------------------------|    |
A|---------------------------------|---------------------------------|    |
E|-0.------0.------0.------0.------|-0.------0.------0.------0-------|
   1 + + + 2 + + + 3 + + + 4 + + +   1 + + + 2 + + + 3 + + + 4 + + +

G|---------------------------------|---------------------------------|
D|---------------------------------|---------------------------------|
A|---------------------------------|---------------------------------|    
E|-1.------1.------1.------1.------|-1.------1.------1.------1.------|    
   1 + + + 2 + + + 3 + + + 4 + + +   1 + + + 2 + + + 3 + + + 4 + + +      
                                                                          
G|---------------------------------|---------------------------------|    
D|---------------------------------|-----2.------2.------------------|    
A|---------------------------------|-----------------2.---2.---------|    
E|-0.------0.------0.------0.------|-0.--------------------------0---|
   1 + + + 2 + + + 3 + + + 4 + + +   1 + + + 2 + + + 3 + + + 4 + + +

G|---------------------------------|---------------------------------|
D|---------------------------------|---------------------------------|
A|---------------------------------|---------------------------------|    
E|-1.------1.------1.------1.------|-1.------1.------1-------1-------|    
   1 + + + 2 + + + 3 + + + 4 + + +   1 + + + 2 + + + 3 + + + 4 + + +   

G|---------------------------------|---------------------------------|    
D|---------------------------------|---------------------------------|    
A|---------7---------------7-------|---------7---------------12\-----|    
E|-0---------------0---------------|-0---------------0---------------|
   1 + + + 2 + + + 3 + + + 4 + + +   1 + + + 2 + + + 3 + + + 4 + + +

[Pre-verse 2] (1:57)
G|---------------------------------|---------------------------------|
D|---------------------------------|---------------------------------|
A|-5.------5.------5.------5.------|-5.------5.------5.------5.------| (x6)
E|---------------------------------|---------------------------------|
   1 + + + 2 + + + 3 + + + 4 + + +   1 + + + 2 + + + 3 + + + 4 + + +

[Solo]
G|---------------------------------|---------------------------------|
D|---------------------------------|---------------------------------|
A|---------------------------------|---------------------------------| (x3)
E|-5.------5.------5---5.----------|-3.----------3.----------3.------|
   1 + + + 2 + + + 3 + + + 4 + + +   1 + + + 2 + + + 3 + + + 4 + + +

G|---------------------------------|---------------------------------|
D|---------------------------------|---------------------------------|
A|---------------------------------|---------------------------------|
E|-5.------5.------5---5.----------|-3.------3---3.--5.------3.------|
   1 + + + 2 + + + 3 + + + 4 + + +   1 + + + 2 + + + 3 + + + 4 + + +

G|---------------------------------|---------------------------------|
D|---------------------------------|---------------------------------|
A|---------------------------------|---------------------------------|    |
E|-1.------1.------1.------1.------|-1.------1.------1.------1.------|    |
   1 + + + 2 + + + 3 + + + 4 + + +   1 + + + 2 + + + 3 + + + 4 + + +      |
                                                                          | (x2)
G|---------------------------------|---------------------------------|    |
D|---------------------------------|---------------------------------|    |
A|---------------------------------|---------------------------------|    |
E|-0.------0.------0.------0.------|-0.------0.------0.------0-------|
   1 + + + 2 + + + 3 + + + 4 + + +   1 + + + 2 + + + 3 + + + 4 + + +

G|---------------------------------|---------------------------------|
D|---------------------------------|---------------------------------|
A|---------------------------------|---------------------------------|    
E|-1.------1.------1.------1.------|-1.------1.------1.------1.------|    
   1 + + + 2 + + + 3 + + + 4 + + +   1 + + + 2 + + + 3 + + + 4 + + +      
                                                                          
G|---------------------------------|---------------------------------|    
D|---------------------------------|-2.--2.------2.------------------|    
A|---------------------------------|-----------------2.---2.---------|    
E|-0.------0.------0.------0.------|-----------------------------0---|
   1 + + + 2 + + + 3 + + + 4 + + +   1 + + + 2 + + + 3 + + + 4 + + +

G|---------------------------------|---------------------------------|
D|---------------------------------|---------------------------------|
A|---------------------------------|---------------------------------|    
E|-1.------1.------1.------1.------|-1.------1.------1-------1-------|    
   1 + + + 2 + + + 3 + + + 4 + + +   1 + + + 2 + + + 3 + + + 4 + + +   

G|---------------------------------|---------------------------------|    
D|---------------------------------|---------------------------------|    
A|---------7---------------7-------|---------7---------------12\-----|    
E|-0---------------0---------------|-0---------------0---------------|
   1 + + + 2 + + + 3 + + + 4 + + +   1 + + + 2 + + + 3 + + + 4 + + +

[Outro] 
(2:46)
G|---------------------------------|---------------------------------|
D|---------------------------------|---------------------------------|
A|-5.------5.------5.------5.------|-5.------5.------5.------5.------| (x6)
E|---------------------------------|---------------------------------|
   1 + + + 2 + + + 3 + + + 4 + + +   1 + + + 2 + + + 3 + + + 4 + + +

G|---------------------------------|---------------------------------|
D|---------------------------------|---------------------------------|
A|-5.------------------------------|---------------------------------| 
E|---------------------------------|---------------------------------|
   1 + + + 2 + + + 3 + + + 4 + + +   1 + + + 2 + + + 3 + + + 4 + + +

Turn down the volume knob and rest until guitar stops playing (around 3:32)
then play a D (3rd string 5th fret) and slowly turn up the same knob.
Enjoy!


***********************************

| /  Slide up
| .  End note

***********************************

            
            
Suggest correction
Creating personal tab
Creating personal tab
You can edit any tab online and save it as your Personal.

You can edit, replace or remove any tab part or add personal notes – all changes will be seen only by you.

Personal tabs can be accessed anytime from any device, even offline.
Learn more »
Give kudos to tab author, rate the tab!
1 2 3 4 5
comments
print report bad tab
guest
You may want to rate the tab now too:
select rating
Wanna post a correction for this tab? Suggest correction