Oops, an error
Loading. Please wait.

A Chain Of Flowers tab

version 1
version 1

Whole song

Interactive

1,973 views 3 this week
no commentswrite comment
1 2 3 4 5
x 3
add to favorites
×
Save as Personal and add changes to this tab that will be seen only by you. Learn more ›
×
You can save this tab as Personal to edit and correct it or add notes. All changes will be seen only by you. Learn more »
launch autoscroll
font size
0
reset
how to read this tab
guitar tuner
edit
Autoscroll
slow
fast
+/-
esc
set tempo
stop
Author
Song: A Chain of Flowers
Artist: The Cure
Album: Join the Dots/Extra B-Side of "Catch"


Intro (Guitar 4)
----------------------

Part I: Repeat 2x
-------------------------

e-|------0-----0-------|-----0------0-----|-----0-----0------|-----0------0----|
B-|----0-----0-------0-|---0------0-----0-|---0-----0------0-|---0------0-----0|
G-|--------------------|------------------|------------------|-----------------|
D-|-9------9-------9---|-7------7-----7---|-5-----5------5---|-7------7-----7--|
A-|--------------------|------------------|------------------|-----------------|
E-|--------------------|------------------|------------------|-----------------|

or

e|-----0-----0-----|-----0-----0------|-----0-----0-----|-----0------0------|
B|---0-----0----0--|---0-----0-----0--|---0-----0-----0-|---0------0------0-|
G|-4-----4----4----|-2-----2-----2----|-0-----0-----0---|-2------2------2---|
D|-----------------|------------------|-----------------|-------------------|
A|-----------------|------------------|-----------------|-------------------|
E|-----------------|------------------|-----------------|-------------------|



Intro Part II: Repeat 2x
-------------------------

e-|------------------|------------------|------------------|-----------------|
B-|-----0------0-----|-----0------0-----|-----0-----0------|-----0-----0-----|
G-|---0------0-----0-|---0------0-----0-|---0-----0--------|---0-----0-----0-|
D-|-5------5-----5---|-4------4-----4---|-5-----5-----7-7--|-4-----4-----4---|
A-|------------------|------------------|------------------|-----------------|
E-|------------------|------------------|------------------|-----------------|



Guitar 3: (Right before the other Instruments join the session)

e-|---2-|
B-|-3---|
G-|-----|
D-|-----|
A-|-----|
E-|-----|

------------------------------------------------------
Interlude (When the other Instruments join the session)
------------------------------------------------------

Guitar 1: (Main Riff Part I)

e|----------------|---------------------------|
B|----------------|---------------------------|
G|-12-12-12-12-11-|-11-11-11-11-9-4---(2)-(4)-|
D|----------------|---------------------------|
A|----------------|---------------------------|
E|----------------|---------------------------|


Guitar 2: (Main Riff Part II)

e|-------------|
B|-------------|
G|-4-4-4-4-2-0-|
D|-------------|
A|-------------|
E|-------------|

Guitar 4: 

 |-------Em---------|--------D?--------|-----C-----------|-----A------------|

e|------------------|------------------|-----------------|------------------|
B|-----0-----0------|-----0-----0------|-----------------|------------------|
G|---0-----0-----0--|---2-----2-----2--|-----0-----0-----|-----2-----2---2--|
D|-2-----2-----2----|-0-----0-----0----|---2-----2-----2-|---2-----2--------|
A|------------------|------------------|-3-----3-----3---|-0-----0-----0----|
E|------------------|------------------|-----------------|------------------|



Guitar 3 (Right before the Verse)

e-|-------2-|
B-|-----3---|
G-|---4-----|
D-|-5-------|
A-|---------|
E-|---------|


---------------------
Verse:
---------------------

Guitar 4: (Bass is playing E, D, C and A)

  |-------Em---------|--------D?--------|-----C-----------|-----A------------|

e|------------------|------------------|-----------------|------------------|
B|-----0-----0------|-----0-----0------|-----------------|------------------|
G|---0-----0-----0--|---2-----2-----2--|-----0-----0-----|-----2-----2---2--|
D|-2-----2-----2----|-0-----0-----0----|---2-----2-----2-|---2-----2--------|
A|------------------|------------------|-3-----3-----3---|-0-----0-----0----|
E|------------------|------------------|-----------------|------------------|



Guitar 3: (Right before the Interlude)


e-|---2-|
B-|-3---|
G-|-----|
D-|-----|
A-|-----|
E-|-----|

-----------------------------------
Interlude:
-----------------------------------

Guitar 1: (Main Riff Part I)

e|----------------|---------------------------|
B|----------------|---------------------------|
G|-12-12-12-12-11-|-11-11-11-11-9-4---(2)-(4)-|
D|----------------|---------------------------|
A|----------------|---------------------------|
E|----------------|---------------------------|


Guitar 2: (Main Riff Part II)

e|-------------|
B|-------------|
G|-4-4-4-4-2-0-|
D|-------------|
A|-------------|
E|-------------|


Guitar 4: (Bass is playing E, D, C and A)

  |-------Em---------|--------D?--------|-----C-----------|-----A------------|

e|------------------|------------------|-----------------|------------------|
B|-----0-----0------|-----0-----0------|-----------------|------------------|
G|---0-----0-----0--|---2-----2-----2--|-----0-----0-----|-----2-----2---2--|
D|-2-----2-----2----|-0-----0-----0----|---2-----2-----2-|---2-----2--------|
A|------------------|------------------|-3-----3-----3---|-0-----0-----0----|
E|------------------|------------------|-----------------|------------------|



Guitar 3 (Right before the second Verse)

e-|-------2-|
B-|-----3---|
G-|---4-----|
D-|-5-------|
A-|---------|
E-|---------|


------------------
Verse 2:
------------------

Guitar 4: (Bass is playing E, D, C and A)

  |-------Em---------|--------D?--------|-----C-----------|-----A------------|

e|------------------|------------------|-----------------|------------------|
B|-----0-----0------|-----0-----0------|-----------------|------------------|
G|---0-----0-----0--|---2-----2-----2--|-----0-----0-----|-----2-----2---2--|
D|-2-----2-----2----|-0-----0-----0----|---2-----2-----2-|---2-----2--------|
A|------------------|------------------|-3-----3-----3---|-0-----0-----0----|
E|------------------|------------------|-----------------|------------------|


Guitar 3: (Right before the Bridge)


e-|---2-|
B-|-3---|
G-|-----|
D-|-----|
A-|-----|
E-|-----|

-------------------------------------------------------
Bridge: (I'll never tell you all the different ways...)
-------------------------------------------------------

Guitar 4:

e-|------------------|------------------|------------------|-----------------|
B-|-----0------0-----|-----0------0-----|-----0-----0------|-----0-----0-----|
G-|---0------0-----0-|---0------0-----0-|---0-----0--------|---0-----0-----0-|
D-|-5------5-----5---|-4------4-----4---|-5-----5-----7-7--|-4-----4-----4---|
A-|------------------|------------------|------------------|-----------------|
E-|------------------|------------------|------------------|-----------------|


Guitar 3: (Right before the Interlude)


e-|---2-|
B-|-3---|
G-|-----|
D-|-----|
A-|-----|
E-|-----|

-------------------------
Interlude (With Solo):
-------------------------

Guitar 1: (Main Riff Part I)

e|----------------|---------------------------|
B|----------------|---------------------------|
G|-12-12-12-12-11-|-11-11-11-11-9-4---(2)-(4)-|
D|----------------|---------------------------|
A|----------------|---------------------------|
E|----------------|---------------------------|


Guitar 2: (Main Riff Part III) 

e|---------------|
B|---------------|
G|-4-4-4-5-4-2-0-| 2x
D|---------------|
A|---------------|
E|---------------|


------------------------------------
Solo: Right after Main Riff Part III
------------------------------------

e|-----------------------------|-----------|-----------------------|
B|-----------------------------|-----------|-----------------------|
G|-/2-/4-/7-/9-/11-/12-/14-/16-|-9-7-7-9-9-|-4-0-/4-4-4-2-0--------|
D|-----------------------------|-----------|-----------------4-2-4-|
A|-----------------------------|-----------|-----------------------|
E|-----------------------------|-----------|-----------------------|

e|----------------------|
B|----------------------|
G|-0-2-4-4------4-4-2-0-|
D|---------2--4---------|
A|----------------------|
E|----------------------|



Guitar 4: (Bass is playing E, D, C and A)

  |-------Em---------|--------D?--------|-----C-----------|-----A------------|

e|------------------|------------------|-----------------|------------------|
B|-----0-----0------|-----0-----0------|-----------------|------------------|
G|---0-----0-----0--|---2-----2-----2--|-----0-----0-----|-----2-----2---2--|
D|-2-----2-----2----|-0-----0-----0----|---2-----2-----2-|---2-----2--------|
A|------------------|------------------|-3-----3-----3---|-0-----0-----0----|
E|------------------|------------------|-----------------|------------------|



Guitar 3 (Right before the Verse)

e-|-------2-|
B-|-----3---|
G-|---4-----|
D-|-5-------|
A-|---------|
E-|---------|


-----------
Verse 3:
-----------

Guitar 4: (Bass is playing E, D, C and A)

 |-------Em---------|--------D?--------|-----C-----------|-----A------------|

e|------------------|------------------|-----------------|------------------|
B|-----0-----0------|-----0-----0------|-----------------|------------------|
G|---0-----0-----0--|---2-----2-----2--|-----0-----0-----|-----2-----2---2--|
D|-2-----2-----2----|-0-----0-----0----|---2-----2-----2-|---2-----2--------|
A|------------------|------------------|-3-----3-----3---|-0-----0-----0----|
E|------------------|------------------|-----------------|------------------|


Guitar 3: (Right before the Bridge)


e-|---2-|
B-|-3---|
G-|-----|
D-|-----|
A-|-----|
E-|-----|

-------------------------------------------------------
Bridge: (I'll never tell you all the different ways...)
-------------------------------------------------------

Guitar 4:

e-|------------------|------------------|------------------|-----------------|
B-|-----0------0-----|-----0------0-----|-----0-----0------|-----0-----0-----|
G-|---0------0-----0-|---0------0-----0-|---0-----0--------|---0-----0-----0-|
D-|-5------5-----5---|-4------4-----4---|-5-----5-----7-7--|-4-----4-----4---|
A-|------------------|------------------|------------------|-----------------|
E-|------------------|------------------|------------------|-----------------|


That's it
Hope you like it
Please Vote it.

Thanks

            
            
Suggest correction
Creating personal tab
Creating personal tab
You can edit any tab online and save it as your Personal.

You can edit, replace or remove any tab part or add personal notes – all changes will be seen only by you.

Personal tabs can be accessed anytime from any device, even offline.
Learn more »
Give kudos to tab author, rate the tab!
1 2 3 4 5
comments
print report bad tab
guest
You may want to rate the tab now too:
select rating
Wanna post a correction for this tab? Suggest correction