Oops, an error
Loading. Please wait.

A Forest Bass Tab

version 2
version 2

Whole song

Interactive

6,641 views 90 this week
1 commentread comment
1 2 3 4 5
excellent!
x 4
add to favorites
launch autoscroll
font size
0
reset
guitar tuner
Tab Pro tools
  • play this tab
  • loop segment
  • change instrument
  • show fretboard
  • metronome
×
Best way to learn
"A Forest"
Autoscroll
slow
fast
+/-
esc
set tempo
stop
Contributor
Difficulty
novice
-------------------------------------------------------------------------------
                         A FOREST - The Cure
-------------------------------------------------------------------------------
Tabbed by: Charles Savoie
E-mail: tabs@uglymofo.com

Tuning: Standard (E-A-D-G)

As recorded on the studio album "Seventeen Seconds" and compilation "Standing on a Beach."

Notations :
  e : 8th             h : half            q : quarter         
  w : whole           
  R : rest            


Main riff
---------
    h+q+e         e  
G-|-----------------|
D-|-R---------------|
A-|-----------------|
E-|---------------3-|


    e e e e e e e e   e e e e e e e e   e e e e e e e e   e e e e e e e e  
G-|-----------------|-----------------|-----------------|-----------------|
D-|-----R-------R---|-----R-------R---|-----R-------R---|-----R-------R---|
A-|-----------------|-3-3-----3-3-----|-----------------|-5-5-----5-5-----|
E-|-5-5---3-5-5---5-|-------5-------0-|-1-1---0-1-1---5-|-------5-------3-|


 (Replace last bar every 4th time:)

    e e e e e e e e  
G-|-----------------|
D-|-----R-----------|
A-|-5-5-----5-------|
E-|-------5---0-2-3-|


 (Repeat main)

 Pre-bridge (Last bar before bridge:)
 ----------
    e e e e e e e e  
G-|-----------------|
D-|-----R-----------|
A-|-5-5-----5-------|
E-|-------5---2-4-5-|

 Bridge
 ------
    q   e e e e e e   e e e e e e e e   e e e e e e e e   e e e e e e e e  
G-|-----------------|-----------------|-----------------|-----------------|
D-|-----------------|-----------------|-----------------|-----------------|
A-|-2---2-2-2-2-2-2-|-3-3-3-3-3-3-3-3-|-----------------|-3-3-3-3-3-3-3-3-|
E-|-----------------|-----------------|-2-2-2-2-2-2-2-2-|-----------------|




    e e e e e e e e   e e e e e e e e   e e e e e e e e   e e e e e e e e  
G-|-----------------|-----------------|-----------------|-----------------|
D-|-----------------|-----------------|-----------------|-----------------|
A-|-2-2-2-2-2-2-2-2-|-3-3-3-3-3-3-3-3-|-----------------|-----0---3-5-3---|
E-|-----------------|-----------------|-2-2-2-2-2-2-2-2-|-1-1---6-------6-|


 (Repeat main + pre-bridge + bridge, then main again)

 Main alternate (Halfway thru guitar solo)
 --------------
    h+q+e         e   h+q+e         e   h+q+e         e   h+q   q  
G-|-----------------|-----------------|-----------------|---------|
D-|-----------------|-----------------|-----------------|---------|
A-|-----------------|-3-------------3-|-----------------|-5-----5-|
E-|-5-------------5-|-----------------|-1-------------1-|---------|

 Outro
 -----
    e e h+q           e e h+q           e e h+q           e e h+q          
G-|-----------------|-----------------|-----------------|-----------------|
D-|-----R-----------|-----R-----------|-----R-----------|-----R-----------|
A-|-----------------|-3-3-------------|-----------------|-5-5-------------|
E-|-5-5-------------|-----------------|-1-1-------------|-----------------|

 Last note (use delay or play eights and fade)
    w               
G-|----------------|
D-|----------------|
A-|----------------|
E-|-5--------------|


----------------------------------------------------------------------
| Tab generated with GnTabber (http://gvelay.free.fr/tools/gntabber) |
| on Wed Dec 26 17:29:54 2012                                        |
----------------------------------------------------------------------
comments
print report bad tab
1 comment total.
0 reply
pipamusa wrote on July 21 2015, 08:23 pm

this seems really good so far (not finished reading it yet)

I want to post or [tab]
guest
You may want to rate the tab now too:
select rating
Please do not post tabs as comments. Select "correction" instead!