Oops, an error
Loading. Please wait.

A Letter To Elise bass

version 2
version 2

Whole song

Interactive

1,131 views 1 this week
no commentswrite comment
1 2 3 4 5
x 3
add to favorites
×
Save as Personal and add changes to this tab that will be seen only by you. Learn more ›
×
You can save this tab as Personal to edit and correct it or add notes. All changes will be seen only by you. Learn more »
launch autoscroll
font size
0
reset
guitar tuner
edit
Autoscroll
slow
fast
+/-
esc
set tempo
stop
Author
Difficulty
Song:   A Letter To Elise
Artist: The Cure
Album:  Wish (1992)
URL:    http://www.youtube.com/watch?v=-AUCSkHCrwY;http://en.wikipedia.org/wiki/A_Letter_to_Elise
Time:   4/4
Tuning: Standard (EADG)



   Intro:
G|------------------------------|------------------------------|------------------------------|
D|-----------------------4-4-4--|-2-2-2-2-2-2---2-2-2-2-7-7-7--|-4-4-4-4-4-4---4-4-4-4-4-7-7--|
A|-0-0-0-0-0-0---0-0-0-0--------|------------------------------|------------------------------|
E|------------------------------|------------------------------|------------------------------|



G|------------------------------|------------------------------|------------------------------|
D|-0-0-0-0-0-0---0-0-0-0-0-4-4--|-----------------------4-4-4--|-2-2-2-2-2-2---2-2-2-2-7-7-7--|
A|------------------------------|-0-0-0-0-0-0---0-0-0-0--------|------------------------------|
E|------------------------------|------------------------------|------------------------------|



G|------------------------------|------------------------------|------------------------------|
D|-4-4-4-4-4-4---4-4-4-4-4-7-7--|-0-0-0-0-0-0---0-0-0-0-0-4-4--|-----------------------4-4-4--|
A|------------------------------|------------------------------|-0-0-0-0-0-0---0-0-0-0--------|
E|------------------------------|------------------------------|------------------------------|


                                                                 Verse 1:
G|------------------------------|------------------------------|------------------------------|
D|-2-2-2-2-2-2---2-2-2-2-7-7-7--|-4-4-4-4-4-4---4-4-4-4-4-7-7--|-0-0-0-0-0-0---0-0-0-0-0-4-4--|
A|------------------------------|------------------------------|------------------------------|
E|------------------------------|------------------------------|------------------------------|



G|------------------------------|------------------------------|------------------------------|
D|-------------------------4-4--|-6-6-6-6-6-6---6-6-6-6-6-7-7--|-4-4-4-4-4-4---4-4-4-4-4-7-7--|
A|-0-0-0-0-0-0---0-0-0-0-0------|------------------------------|------------------------------|
E|------------------------------|------------------------------|------------------------------|


                                                                 Chorus:
G|------------------------------|------------------------------|------------------------------|
D|-0-0-0-0-0-0---0-0-0-0-0-4-4--|-------------------------4-4--|-6-6-6-6-6-6---6-6-6-6-6-7-7--|
A|------------------------------|-0-0-0-0-0-0---0-0-0-0-0------|------------------------------|
E|------------------------------|------------------------------|------------------------------|



G|------------------------------|------------------------------|------------------------------|
D|-4-4-4-4-4-4---4-4-4-4-4-7-7--|-0-0-0-0-0-0---0-0-0-0-0-4-4--|-----------------------4-4-4--|
A|------------------------------|------------------------------|-0-0-0-0-0-0---0-0-0-0--------|
E|------------------------------|------------------------------|------------------------------|



G|------------------------------|------------------------------|------------------------------|
D|-2-2-2-2-2-2---2-2-2-2-7-7-7--|-4-4-4-4-4-4---4-4-4-4-4-7-7--|-0-0-0-0-0-0---0-0-0-0-0-4-4--|
A|------------------------------|------------------------------|------------------------------|
E|------------------------------|------------------------------|------------------------------|



G|------------------------------|------------------------------|------------------------------|
D|-----------------------4-4-4--|-2-2-2-2-2-2---2-2-2-2-7-7-7--|-4-4-4-4-4-4---4-4-4-4-4-7-7--|
A|-0-0-0-0-0-0---0-0-0-0--------|------------------------------|------------------------------|
E|------------------------------|------------------------------|------------------------------|


   Verse 2:
G|------------------------------|------------------------------|------------------------------|
D|-0-0-0-0-0-0---0-0-0-0-0-4-4--|-------------------------4-4--|-6-6-6-6-6-6---6-6-6-6-6-7-7--|
A|------------------------------|-0-0-0-0-0-0---0-0-0-0-0------|------------------------------|
E|------------------------------|------------------------------|------------------------------|



G|------------------------------|------------------------------|------------------------------|
D|-4-4-4-4-4-4---4-4-4-4-4-7-7--|-0-0-0-0-0-0---0-0-0-0-0-4-4--|-------------------------4-4--|
A|------------------------------|------------------------------|-0-0-0-0-0-0---0-0-0-0-0------|
E|------------------------------|------------------------------|------------------------------|



G|------------------------------|------------------------------|------------------------------|
D|-6-6-6-6-6-6---6-6-6-6-6-7-7--|-4-4-4-4-4-4---4-4-4-4-4-7-7--|-0-0-0-0-0-0---0-0-0-0-0-4-4--|
A|------------------------------|------------------------------|------------------------------|
E|------------------------------|------------------------------|------------------------------|



G|------------------------------|------------------------------|------------------------------|
D|-------------------------4-4--|-6-6-6-6-6-6---6-6-6-6-6-7-7--|-4-4-4-4-4-4---4-4-4-4-4-7-7--|
A|-0-0-0-0-0-0---0-0-0-0-0------|------------------------------|------------------------------|
E|------------------------------|------------------------------|------------------------------|



G|------------------------------|------------------------------|------------------------------|
D|-0-0-0-0-0-0---0-0-0-0-0-4-4--|-------------------------4-4--|-6-6-6-6-6-6---6-6-6-6-6-7-7--|
A|------------------------------|-0-0-0-0-0-0---0-0-0-0-0------|------------------------------|
E|------------------------------|------------------------------|------------------------------|



G|------------------------------|------------------------------|------------------------------|
D|-4-4-4-4-4-4---4-4-4-4-4-7-7--|-0-0-0-0-0-0---0-0-0-0-0-4-4--|-2-2-2-2-2-2---2-2-2-2-7-7-7--|
A|------------------------------|------------------------------|------------------------------|
E|------------------------------|------------------------------|------------------------------|


                                  Verse 3:
G|------------------------------|------------------------------|------------------------------|
D|-4-4-4-4-4-4---4-4-4-4-4-7-7--|-2-2-2-2-2-2---2-2-2-2-7-7-7--|-4-4-4-4-4-4---4-4-4-4-4-7-7--|
A|------------------------------|------------------------------|------------------------------|
E|------------------------------|------------------------------|------------------------------|



G|------------------------------|------------------------------|------------------------------|
D|-2-2-2-2-2-2---2-2-2-2-7-7-7--|-4-4-4-4-4-4---4-4-4-4-4-7-7--|-5-5-5-5-5-5---5-5-5-5-5-5-5--|
A|------------------------------|------------------------------|------------------------------|
E|------------------------------|------------------------------|------------------------------|



G|------------------------------|------------------------------|------------------------------|
D|-4-4-4-4-4-4---4-4-4-4-4-7-7--|-5-5-5-5-5-5---5-5-5-5-5-5-5--|-4-4-4-4-4-4---4-4-4-4-4-7-7--|
A|------------------------------|------------------------------|------------------------------|
E|------------------------------|------------------------------|------------------------------|


   Guitar Solo:
G|------------------------------|------------------------------|------------------------------|
D|-5-5-5-5-5-5---5-5-5-5-5-5-5--|-4-4-4-4-4-4---4-4-4-4-4-7-7--|-5-5-5-5-5-5---5-5-5-5-5-5-5--|
A|------------------------------|------------------------------|------------------------------|
E|------------------------------|------------------------------|------------------------------|



G|------------------------------|------------------------------|------------------------------|
D|-4-4-4-4-4-4---4-4-4-4-4-7-7--|-2-2-2-2-2-2---2-2-2-2-7-7-7--|-4-4-4-4-4-4---4-4-4-4-4-7-7--|
A|------------------------------|------------------------------|------------------------------|
E|------------------------------|------------------------------|------------------------------|



G|------------------------------|------------------------------|------------------------------|
D|-2-2-2-2-2-2---2-2-2-2-7-7-7--|-4-4-4-4-4-4---4-4-4-4-4-7-7--|-2-2-2-2-2-2---2-2-2-2-7-7-7--|
A|------------------------------|------------------------------|------------------------------|
E|------------------------------|------------------------------|------------------------------|



G|------------------------------|------------------------------|------------------------------|
D|-4-4-4-4-4-4---4-4-4-4-4-7-7--|-2-2-2-2-2-2---2-2-2-2-7-7-7--|-0-0-0-0-0-0---0-0-0-0-0-4-4--|
A|------------------------------|------------------------------|------------------------------|
E|------------------------------|------------------------------|------------------------------|



G|------------------------------|------------------------------|------------------------------|
D|-----------------------4-4-4--|-2-2-2-2-2-2---2-2-2-2-7-7-7--|-4-4-4-4-4-4---4-4-4-4-4-7-7--|
A|-0-0-0-0-0-0---0-0-0-0--------|------------------------------|------------------------------|
E|------------------------------|------------------------------|------------------------------|


                                                                 Verse 4:
G|------------------------------|------------------------------|------------------------------|
D|-0-0-0-0-0-0---0-0-0-0-0-4-4--|-----------------------4-4-4--|-2-2-2-2-2-2---2-2-2-2-7-7-7--|
A|------------------------------|-0-0-0-0-0-0---0-0-0-0--------|------------------------------|
E|------------------------------|------------------------------|------------------------------|



G|------------------------------|------------------------------|------------------------------|
D|-4-4-4-4-4-4---4-4-4-4-4-7-7--|-0-0-0-0-0-0---0-0-0-0-0-4-4--|-----------------------4-4-4--|
A|------------------------------|------------------------------|-0-0-0-0-0-0---0-0-0-0--------|
E|------------------------------|------------------------------|------------------------------|


                                                                 Chorus:
G|------------------------------|------------------------------|------------------------------|
D|-2-2-2-2-2-2---2-2-2-2-7-7-7--|-4-4-4-4-4-4---4-4-4-4-4-7-7--|-0-0-0-0-0-0---0-0-0-0-0-4-4--|
A|------------------------------|------------------------------|------------------------------|
E|------------------------------|------------------------------|------------------------------|



G|------------------------------|------------------------------|------------------------------|
D|-------------------------4-4--|-6-6-6-6-6-6---6-6-6-6-6-7-7--|-4-4-4-4-4-4---4-4-4-4-4-7-7--|
A|-0-0-0-0-0-0---0-0-0-0-0------|------------------------------|------------------------------|
E|------------------------------|------------------------------|------------------------------|


                                                                 Verse 5:
G|------------------------------|------------------------------|------------------------------|
D|-0-0-0-0-0-0---0-0-0-0-0-4-4--|-------------------------4-4--|-6-6-6-6-6-6---6-6-6-6-6-7-7--|
A|------------------------------|-0-0-0-0-0-0---0-0-0-0-0------|------------------------------|
E|------------------------------|------------------------------|------------------------------|



G|------------------------------|------------------------------|------------------------------|
D|-4-4-4-4-4-4---4-4-4-4-4-7-7--|-0-0-0-0-0-0---0-0-0-0-0-4-4--|-----------------------4-4-4--|
A|------------------------------|------------------------------|-0-0-0-0-0-0---0-0-0-0--------|
E|------------------------------|------------------------------|------------------------------|


   Coda:
G|------------------------------|------------------------------|------------------------------|
D|-2-2-2-2-2-2---2-2-2-2-7-7-7--|-4-4-4-4-4-4---4-4-4-4-4-7-7--|-0-0-0-0-0-0---0-0-0-0-0-4-4--|
A|------------------------------|------------------------------|------------------------------|
E|------------------------------|------------------------------|------------------------------|



G|------------------------------|------------------------------|------------------------------|
D|-----------------------4-4-4--|-2-2-2-2-2-2---2-2-2-2-7-7-7--|-4-4-4-4-4-4---4-4-4-4-4-7-7--|
A|-0-0-0-0-0-0---0-0-0-0--------|------------------------------|------------------------------|
E|------------------------------|------------------------------|------------------------------|

[End]


x    = dead note
/    = slide up
\    = slide dn
h    = hammer on
p    = pull off
~    = vibrato
b    = bend
br   = bend and release
pb   = pre bend
pbr  = pre bend and release

            
            
Suggest correction
Creating personal tab
Creating personal tab
You can edit any tab online and save it as your Personal.

You can edit, replace or remove any tab part or add personal notes – all changes will be seen only by you.

Personal tabs can be accessed anytime from any device, even offline.
Learn more »
Give kudos to tab author, rate the tab!
1 2 3 4 5
comments
print report bad tab
guest
You may want to rate the tab now too:
select rating
Wanna post a correction for this tab? Suggest correction