Oops, an error
Loading. Please wait.

A Night Like This Tab

version 1
version 1

Whole song

Interactive

4,777 views 6 this week
no commentswrite comment
1 2 3 4 5
please rate
add to favorites
launch autoscroll
font size
0
reset
how to read this tab
guitar tuner
Tab Pro tools
  • play this tab
  • loop segment
  • change instrument
  • show fretboard
  • metronome
Autoscroll
slow
fast
+/-
esc
set tempo
stop
Contributor
e)----------------------------------------------------------------/
B)----------------------------------------------------------------/
G)------------4----7------9----4-----------7------9---------------/
D)-----4------2----7------9----4------7----7------9---4-----------/
A)-----2------2----5------7----2------7----5------7---4-----------/
E)-----2------------------------------5---------------2-----------/


se va repitiendo desde el 4 en adelante
                          4
                          2

en la parte del coro seria

e)----------------------------------------------------------------/
B)----------------------------------------------------------------/
G)-----------------------------4------7----7------9---------------/
D)-----4-----4-------6----6----4------7----7------9---4-----------/
A)-----2-----4-------6----6----2------5----5------7---4-----------/
E)-----2-----2-------4----4---------------------------2-----------/

asi continuamente desde el primer rasgeo

ojala les guste a mi me gusto caleta
comments
We did not receive enough feedback on this tab! Please rate:
print report bad tab
1 2 3 4 5
I want to post or [tab]
guest
You may want to rate the tab now too:
select rating
Please do not post tabs as comments. Select "correction" instead!