Oops, an error
Loading. Please wait.

Bloodflowers Tab

version 2
version 2

Whole song

Interactive

5,658 views 9 this week
no commentswrite comment
1 2 3 4 5
excellent!
x 5
add to favorites
launch autoscroll
font size
0
reset
how to read this tab
guitar tuner
Tab Pro tools
  • play this tab
  • loop segment
  • change instrument
  • show fretboard
  • metronome
×
Best way to learn
"Bloodflowers"
Autoscroll
slow
fast
+/-
esc
set tempo
stop
Contributor
                             BLOODFLOWERS - The Cure

Tabbed by: elle
Email:el04@hotmail.com

Tuning:(EADGBE)

INTRO:

Starts At 15 seconds, Play This Until Rob Saids:
e |-------------------|--------------------------------------|
B |-------------------|--------------------------------------|
G |--4-4-2-2-1-1------|--------------------------------------|
D |--------------2-2--|--------------------------------------|
A |-------------------|--------------------------------------|
E |-------------------|--------------------------------------|

¨This Flowers Will Never Faith¨

e |---------------------------------------------------------|
B |---------------------------------------------------------|
G |---------------------------------------------------------|
D |----------------------------------------6-6-6-4-2-1-2----|
A |------------------------------4-4-4-4--------------------|
E |---------------------------------------------------------|

e |---------------------------------------------------------|
B |---------------------------------------------------------|
G |---------------------------------------------------------|
D |----------6-6-6-9-7-6----------------6-6-6-4-2-1-2-------|
A |--4-4-4-4-------------5------4-4-4-4---------------4-----|
E |---------------------------------------------------------|

e |----------------------------------------------------------|
B |----------------------------------------------------------|
G |----------------------------------------------------------|
D |----------6-6-6-4-2-1-2-------------6-6-6-9-7-7-7-6-6-----|
A |--4-4-4-4-------------------4-4-4-4-------------------5-5-|
E |----------------------------------------------------------|

e |---------------------------------------------------------|
B |---------------------------------------------------------|
G |---------------------------------------------------------|
D |--9-9-7-7-6-6-----9-9-7-7-6-6----------------------------|
A |--------------5-5-------------5-5------------------------|
E |---------------------------------------------------------|

        ¨This Wolrd Never Stops You Said¨
e |---------------------------------------------------------|
B |--------0--------------------------0---------------------|
G |----6--------------------------6-------------------------|
D |--6---6----------------------6---6-----------------------|
A |---------------------------------------------------------|
E |---------------------------------------------------------|

        ¨This Wonder Never Leaves¨
e |---------------------------------------------------------|
B |--------0------------------------------------------------|
G |----6----------------------------------------------------|
D |--6---6----------4-4-4-4-4p6-6---------------------------|
A |-------------------------------4-4-----------------------|
E |---------------------------------------------------------|

         ¨The Time Will Never Come      To Say GoodBye¨
e |---------------------------------------------------------|
B |--------0--------------------------0------------0--------|
G |----6--------------------------6------------6------------|
D |--6---6----------------------6---6--------6---6----------|
A |---------------------------------------------------------|
E |---------------------------------------------------------|

e |---------------------------------------------------------|
B |---------------------------------------------------------|
G |---------------------------------------------------------|
D |--4-4-4-4-4p6-6------------------------------------------|
A |----------------4-4--------------------------------------|
E |---------------------------------------------------------|

You Will Play This Until Rob Saids:

 ¨This Flowers Will Never Die¨           ¨Never Die¨
e |----------------------------------------------------------|
B |----------------------------2-2-2-2-2-2-2-2-5-5-5-4-------|
G |----------------------------2-2-2-2-2-2-2-2-2-2-2-2-------|
D |----------------------------2-2-2-2-2-2-2-2-2-2-2-2-------|
A |----------------------------0-0-0-0-0-0-0-0-0-0-0-0-------|
E |----------------------------------------------------------|

¨This Flowers      Will Never Die¨                       ¨Never Die¨
e |----------------------------------------------------------|
B |-----2-2-2-2-2-2-2-2-5-5-5-4-------2-2-2-2-2-2-2-2-2------|
G |-----2-2-2-2-2-2-2-2-2-2-2-2-------2-2-2-2-2-2-2-2-2------|
D |-----2-2-2-2-2-2-2-2-2-2-2-2-------2-2-2-2-2-2-2-2-2------|
A |-----0-0-0-0-0-0-0-0-0-0-0-0-------0-0-0-0-0-0-0-0-0------|
E |----------------------------------------------------------|

You Will Have To Repeat The ¨This Flowers Will Never Faith¨
& ¨This Wolrd Never Stops You Said¨ Part

SOLO:

e |---------------------------7------------------------------|
B |--7b-7br-p5---5-------5-7b---7br-p5---5--------5-----5----|
G |------------6---4-4h6---------------6----4-4h6---4h6------|
D |----------------------------------------------------------|
A |----------------------------------------------------------|
E |----------------------------------------------------------|

e |-----------------------------------------------8b-8b-8br-|
B |----------------------------------7b-7b-7b-7br-----------|
G |---------------------------------------------------------|
D |---------------------------------------------------------|
A |--4-6-7-7/11-11------4-6-7-------------------------------|
E |---------------------------7-5---------------------------|

               Repeat This Part Like 3 More Times
e |--12-12/14-14-14-14\12-12-12-12/14-14-14-14\-------------|
B |--12-12/14-14-14-14\12-12-12-12/14-14-14-14\-------------|
G |---------------------------------------------------------|
D |---------------------------------------------------------|
A |---------------------------------------------------------|
E |---------------------------------------------------------|

e |---------------------------7-7-7/9-9-9-9-9/11-11-11-11-11-|
B |--7b-7br-p5---5-7br-p5---5-5-5-5/7-7-7-7-7/9--9--9--9--9--|
G |------------6----------6----------------------------------|
D |----------------------------------------------------------|
A |----------------------------------------------------------|
E |----------------------------------------------------------|

Play ¨This Wolrd Never Stops You Said¨ Part Again
Then:
¨This Flowers Will Always Die!¨(I Think You Can Figure Out This Part)
e |---------------------------------------------------------|
B |------------------------------7b-7br-p5---5--------------|
G |----------------------------------------6----------------|
D |---------------------------------------------------------|
A |---------------------------------------------------------|
E |---------------------------------------------------------|

             ¨Between You & Me¨
e |------------------------------------0--------------------|
B |------0-4-------------------------0-----4----------------|
G |----6--------------------------6-------------------------|
D |--6--------------------------6---------------------------|
A |---------------------------------------------------------|
E |---------------------------------------------------------|

¨Who To Trust¨
e |--------------------------------------------0------------|
B |---------------0-4------------------------0-----4--------|
G |---------------------------------------------------------|
D |-----------6--------------------------6------------------|
A |---------4--------------------------4--------------------|
E |---------------------------------------------------------|

          ¨Never Fade¨                ¨Never Die¨
e |---------------------------------------------------------|
B |--7b-7br-p5---5-----------------7b-7br-p5---5------------|
G |------------6-----------------------------6--------------|
D |---------------------------------------------------------|
A |---------------------------------------------------------|
E |---------------------------------------------------------|

¨You Give Me Flowers Of Love¨
e |------------------------------7-7-7-5-5-5-4-4-4----------|
B |--7b-7br-p5---5---------------------------------5-5-5----|
G |------------6--------------------------------------------|
D |---------------------------------------------------------|
A |---------------------------------------------------------|
E |---------------------------------------------------------|

e |--7-7-7-5-5-5-4-4-4--------------------------------------|
B |---------------------------------------------------------|
G |---------------------------------------------------------|
D |---------------------------------------------------------|
A |---------------------------------------------------------|
E |---------------------------------------------------------|

Now Just Repeat ¨Never Fade¨ Part Until The Song Ends

Tat´s All

| /  slide up
| \  slide down
| h  hammer-on
| p  pull-off
| b  bend
comments
print report bad tab
I want to post or [tab]
guest
You may want to rate the tab now too:
select rating
Please do not post tabs as comments. Select "correction" instead!