Oops, an error
Loading. Please wait.

Boys Dont Cry Tab

version 1
version 1

Intro

Whole song

Interactive

63,192 views 27 this week
1 commentread comment
1 2 3 4 5
worth learning
x 13
add to favorites
launch autoscroll
font size
0
reset
how to read this tab
guitar tuner
Tab Pro tools
  • play this tab
  • loop segment
  • change instrument
  • show fretboard
  • metronome
×
Best way to learn
"Boys Dont Cry"
Autoscroll
slow
fast
+/-
esc
set tempo
stop
Contributor
Song: Boys Dont Cry
Album: Boys Dont Cry
Tabbed: Say It Aint So
Part: Intro/Main Riff

E|------------------------------------------------|
B|-----------------------------7-9-10-9-7---------|
G|-6--6-6-7-9--6--6-6-7-9--9-9-------------9-7----|
D|------------------------------------------------|
A|------------------------------------------------|
E|------------------------------------------------|
comments
print report bad tab
1 comment total.
0 reply
spti wrote on October 26 2003, 12:00 am

E|----------------------------------------------|
B|-----------------------------7-9-10-7---------|
G|-6--6-6-7-9--6--6-6-7-9--9-9-9------------7-9-|
D|----------------------------------------------|
A|----------------------------------------------|
E|----------------------------------------------|

it was nearly perfect dude, but this one i posted is 100%

I want to post or [tab]
guest
You may want to rate the tab now too:
select rating
Please do not post tabs as comments. Select "correction" instead!