Oops, an error
Loading. Please wait.

Boys Dont Cry Tab

version 2
version 2

Intro

Whole song

Interactive

25,774 views 21 this week
3 commentsread comments
1 2 3 4 5
accurate
x 9
add to favorites
launch autoscroll
font size
0
reset
how to read this tab
guitar tuner
Tab Pro tools
  • play this tab
  • loop segment
  • change instrument
  • show fretboard
  • metronome
×
Best way to learn
"Boys Dont Cry"
Autoscroll
slow
fast
+/-
esc
set tempo
stop
-------------------------------------------------------------------------------
                             Boys Dont Cry - The Cure
-------------------------------------------------------------------------------
Tabbed by:Chris Curtiss
Email:alterego87@aol.com

The Boys Don't Cry Intro. The book says to do it one way, but trust me my way is much easier.

Tuning:Standard

Here's how the book says to do it...
e|---------------------------------------------------------------------------|
B|--2--2-2-2-3-5--2--2-2-2-3-5--5--5-5-5-7-9-10--10-9-7-2--------------------|
G|---------------------------------------------------------------------------|
D|---------------------------------------------------------------------------|
A|---------------------------------------------------------------------------|
E|---------------------------------------------------------------------------|

Here's how I do it...
e|---------------------------------------------------------------------------|
B|--------------------------------------7-9-10--10-9-7-2---------------------|
G|--6--6-6-6-7-9--6--6-6-6-7-9--9-9-9-9--------------------------------------|
D|---------------------------------------------------------------------------|
A|---------------------------------------------------------------------------|
E|---------------------------------------------------------------------------|
comments
print report bad tab
3 comments total.
0 reply
oyvind wrote on August 3 2007, 01:44 pm

I think THIS is more correct:
e|---------------------------------------------------------------------------|
B|--2--2-2-2-3-5--2--2-2-2-3-5--5--5-5-5-7-9-10--7-5-3-----------------------|
G|---------------------------------------------------------------------------|
D|---------------------------------------------------------------------------|
A|---------------------------------------------------------------------------|
E|---------------------------------------------------------------------------|

At least this sounds like it does on the actual song.

0 reply
kal3 wrote on September 9 2015, 10:54 am

The ovvind one sounds right to me too.

0 reply
TheLyddsta wrote on November 30 2015, 02:10 pm

e|---------------------------------------------------------------------------|
B|--2--2-2-2-3-5--2--2-2-2-3-5--5--5-5-5-7-9-10--7-5-3-2---------------------|
G|---------------------------------------------------------------------------|
D|---------------------------------------------------------------------------|
A|---------------------------------------------------------------------------|
E|---------------------------------------------------------------------------|
I think there's another note after.

I want to post or [tab]
guest
You may want to rate the tab now too:
select rating
Please do not post tabs as comments. Select "correction" instead!