Oops, an error
Loading. Please wait.
We have an official Boys Dont Cry tab made by UG professional guitarists. Check out the tab »
×
178,243 views 21 this week
25 commentsread comments
1 2 3 4 5
x 24
add to favorites
×
Save as Personal and add changes to this tab that will be seen only by you. Learn more ›
×
You can save this tab as Personal to edit and correct it or add notes. All changes will be seen only by you. Learn more »
launch autoscroll
font size
0
reset
how to read this tab
guitar tuner
backing track
0:00
0:00
edit
Autoscroll
slow
fast
+/-
esc
set tempo
stop
Author
Song: Boys Don't Cry
Artist: The Cure
Album:
Tuning: EADGBe (standard)

Gtr 1: acoustic (rythm)
Gtr 2: light distorsion (lead)

tabbed by BoF feel free to send me feedback
and corrections at Bof_mu@caramail.com


[Intro]

 Gtr 1
e|------------------------------------------|
B|--4---5---7---9-------11-7-5--------------|
G|--6---7---9---11------11-9-7--------------|
D|--6---7---9---11------11-9-7--------------|
A|--4---5---7---9-------9--7-5--------------|
E|------------------------------------------|

 Gtr 1
e|------------------------------------------------|
B|-----------------9--7-5-------------------------|
G|-------------7---11-9-7-------------------------|
D|--7--9--11---7---11-9-7-------------------------|
A|--7--9--11---5---9--7-5-------------------------|
E|--5--7--9---------------------------------------|(x3)

 Gtr 2
e|------------------------------5------------------|
B|---------------------5-5--7-9----7-5-------------|
G|-6-6--7-9--6-6--7-9------------------7---6hold---| 
D|-------------------------------------------------|
A|-------------------------------------------------|
E|-------------------------------------------------|(x2)


[Verse]

 Gtr 1, Gtr 2(clean)
e|--------------------------------------------------------|
B|--------------------------------------------------------|
G|-------------------------------------------7-x-7--7-7---|
D|--7-x-7--7-7--9-x-9--9-9---11x-11-11-11----7-x-7--7-7---|
A|--7-x-7--7-7--9-x-9--9-9---11x-11-11-11----5-x-5--5-5---|
E|--5-x-5--5-5--7-x-7--7-7---9-x-9--9--9------------------|(x2)

e|--------------------------------------------------------|
B|--4-x-4--4-4---2-x-2--2-2-------------------------------|
G|--6-x-6--6-6---4-x-4--4-4-------------------------------|
D|--6-x-6--6-6---4-x-4--4-4-------------------------------|
A|--4-x-4--4-4---2-x-2--2-2-------------------------------|
E|--------------------------------------------------------|(x4)


[Chorus]

 Gtr 1
e|---------------------------------------------------------------|
B|---------------------------------------------------------------|
G|-------------------------------------------7-x-7--7-7--11-9-7--|
D|--7-x-7--7-7--9-x-9--9-9---11x-11-11-11----7-x-7--7-7--11-9-7--| 
A|--7-x-7--7-7--9-x-9--9-9---11x-11-11-11----5-x-5--5-5--9--7-5--|
E|--5-x-5--5-5--7-x-7--7-7---9-x-9--9--9-------------------------|(x2)

 Gtr 2
e|-------------------------------5------------------------|
B|---------------------5-5--7-9------7-5------------------|
G|-6-6--7-9--6-6--7-9--------------------7----------------|
D|--------------------------------------------------------|
A|--------------------------------------------------------|
E|--------------------------------------------------------|(x2)

[Verse 2]
(same as verse 1)

[Chorus]

[Verse 3]
(same as verse 1)


[Bridge]

 Gtr 1, Gtr 2(clean)
e|---------------------------------------------------12--12-9----|
B|--7-x-7--7-7--9---9--1111--7---9--7-7--9---11-1111-12--12-9----|
G|--9-x-9--9-9--11--11-1111--9---9--9-9--11--11-1111-------------|
D|--9-x-9--9-9--11--11-1111--9---7--9-9--11--11-1111-------------|
A|--7-x-7--7-7--9-x-9--9-9---7-x-7--7-7--9-x-9--9-9--------------|
E|---------------------------------------------------------------|

e|---------------------------------------------------------------|
B|--7-x-7--7-7--9---9--1111--7---9--7-7--9---11-1111-------------|
G|--9-x-9--9-9--11--11-1111--9---9--9-9--11--11-1111---7-7-7-7-7-|
D|--9-x-9--9-9--11--11-1111--9---7--9-9--11--11-1111---7-7-7-7-7-|
A|--7-x-7--7-7--9-x-9--9-9---7-x-7--7-7--9-x-9--9-9----5-5-5-5-5-|
E|---------------------------------------------------------------|

[Chorus]

Ending
near same as intro, figure the variations yourself it's easy.

            
            
Suggest correction
Creating personal tab
Creating personal tab
You can edit any tab online and save it as your Personal.

You can edit, replace or remove any tab part or add personal notes – all changes will be seen only by you.

Personal tabs can be accessed anytime from any device, even offline.
Learn more »
comments
print report bad tab
25 comments total. Showing first comments.
-2 reply
xxTBSxx 10 Jun 20, 2005 08:00 PM

dude this is ***in wrong

-2 reply
xxTBSxx 10 Jun 20, 2005 08:00 PM

dude this is ***in wrong

-2 reply
xxTBSxx 10 Jun 20, 2005 08:00 PM

dude this is ***in wrong

guest
You may want to rate the tab now too:
select rating
Wanna post a correction for this tab? Suggest correction