Oops, an error
Loading. Please wait.
We have an official Boys Dont Cry tab made by UG professional guitarists. Check out the tab »
×
73,126 views 123 this week
10 commentsread comments
1 2 3 4 5
x 60
add to favorites
×
Save as Personal and add changes to this tab that will be seen only by you. Learn more ›
×
You can save this tab as Personal to edit and correct it or add notes. All changes will be seen only by you. Learn more »
launch autoscroll
font size
0
reset
guitar tuner
backing track
0:00
0:00
edit
Autoscroll
slow
fast
+/-
esc
set tempo
stop
Author
----------------------------------------------------------------------------                        
Boys Don't Cry - The Cure
----------------------------------------------------------------------------

Tabbed By: Izzy Ramos
Tuning: E,A,D.G

[Intro] (1x)
G|-------------------------|
D|-------------------------|
A|-0---2---4---5--5-4-2----|
E|-------------------------|

[Intro] part 2 (3x)
G|---------------------------------|
D|---------------------------------|
A|0-0000-2-2222-4-4444-5--5-4-2----|
E|---------------------------------|

[Verse] (2x)
G|-------------------------------|
D|-------------------------------|
A|0-0000-2-2222-4-4444-5-5555----|
E|-------------------------------|

[Pre-Chorus] (4x)
G|------------------|
D|------------------|
A|-4-4444-2-2222----|
E|------------------|

[Chorus] (2x)
G|---------------------------------|
D|---------------------------------|
A|0-0000-2-2222-4-4444-5--5-4-2----|
E|---------------------------------|

[Verse] (2x)
G|-------------------------------|
D|-------------------------------|
A|0-0000-2-2222-4-4444-5-5555----|
E|-------------------------------|

[Pre-Chorus] (4x)
G|------------------|
D|------------------|
A|-4-4444-2-2222----|
E|------------------|

[Chorus] (2x)
G|---------------------------------|
D|---------------------------------|
A|0-0000-2-2222-4-4444-5--5-4-2----|
E|---------------------------------|

[Verse] (2x)
G|-------------------------------|
D|-------------------------------|
A|0-0000-2-2222-4-4444-5-5555----|
E|-------------------------------|

[Bridge] (1x)
G|---------------------------------------------------|
D|---------------------------------------------------|
A|44444-55555-44444-55555-44444-55555-22222-77777----|
E|---------------------------------------------------|

[Verse] (2x)
G|-------------------------------|
D|-------------------------------|
A|0-0000-2-2222-4-4444-5-5555----|
E|-------------------------------|

[Chorus] (3x)
G|---------------------------------|
D|---------------------------------|
A|0-0000-2-2222-4-4444-5--5-4-2----|
E|---------------------------------|

[Outro] (1x)
G|---------------------------|
D|---------------------------|
A|-0---2---4---5--5-4-2-0----|
E|---------------------------|


Thats it. If you have any problems you can E-mail me at 
what_was_here_is_gone_now@yahoo.com
or you can instant message me on AIM at
IzzyALegend
(Please Rate)
Suggest correction
Creating personal tab
Creating personal tab
You can edit any tab online and save it as your Personal.

You can edit, replace or remove any tab part or add personal notes – all changes will be seen only by you.

Personal tabs can be accessed anytime from any device, even offline.
Learn more »
comments
print report bad tab
10 comments total. Showing first comments.
+1 reply
Covet 31 Feb 04, 2008 05:01 AM

Sounds great, thanks for uploading this.

+3 reply
Zoso518 154 Sep 16, 2009 12:08 PM

Bridge goes lime this:

x3             or              x3
|--------------|--------------||--------------|-------------|
|--------------|--------------||-2-2222-4-4444|0-0000-2-2222|
|-7-7777-9-9999|-5-5555-7-7777||--------------|-------------|
|--------------|--------------||--------------|-------------|


I could be wrong but it sounds funky like you have it.

0 reply
Lopez6 10 Dec 13, 2012 10:48 AM

Yeah, I vote that the bridge is closer to Zoso's. I got it as:

G---------------------------------------------------------|
D-2-2222-4-4444-2-2222-4-4444-2-2222-4-4444---------------|
A-------------------------------------------2-2222-7-7777-|
E---------------------------------------------------------|

guest
You may want to rate the tab now too:
select rating
Wanna post a correction for this tab? Suggest correction