Oops, an error
Loading. Please wait.
We have an official Boys Dont Cry tab made by UG professional guitarists. Check out the tab »
×
2,853 views 1 this week
no commentswrite comment
1 2 3 4 5
3 more votes to show rating
add to favorites
×
Save as Personal and add changes to this tab that will be seen only by you. Learn more ›
×
You can save this tab as Personal to edit and correct it or add notes. All changes will be seen only by you. Learn more »
launch autoscroll
font size
0
reset
guitar tuner
backing track
0:00
0:00
edit
Autoscroll
slow
fast
+/-
esc
set tempo
stop
Author
-----------------------------------------------------------------------------
			     The Cure - Boys Don't Cry
-----------------------------------------------------------------------------

Tabbed By : Pissanga
e-mail: pissanga@terra.com.br

Tuning: This is he tab for someone who uses STANDARD tuning (E A D G).

Comment: please, listen to the song while playing it, it helps more than any
tab you can finda here.

-----------------------------------------------------------------------------

| /  slide up
| \  slide down
| "/\" means slide up about one fret and quickly slide down to the next note
just listen carefuly and you'll see)

Intro (guitar and bass):

G|---|---|---|--------------|
D|---|---|---|--------------|  1X
A|---|---|---|--------------|
E|-5-|-7-|-9-|-10----10-9-7-|


Verse I:

G|-------------|-------------|-------------|--------------|
D|-------------|-------------|-------------|--------------|  2X
A|-------------|-------------|-------------|--------------|
E|-5--5-5--5/\-|-7--7-7--7/\-|-9--9-9--9/\-|-10----10-9-7-|


Verse variation:

G|-------------|-------------|-------------|------------------|
D|-------------|-------------|-------------|------------------|  1X
A|-------------|-------------|-------------|------------10-12-|
E|-5--5-5--5/\-|-7--7-7--7/\-|-9--9-9--9/\-|-10---10-12-------|


Verse II:

G|-------------|-------------|-------------|------------|
D|-------------|-------------|-------------|------------|  2X
A|-------------|-------------|-------------|------------|
E|-5--5-5--5/\-|-7--7-7--7/\-|-9--9-9--9/\-|-10--10-10--|


Bridge:
                      2x
G|----------|----------|-------------------|----------|-----------|
D|----------|----------|-------------------|----------|-----------|
A|----------|----------|-------------------|----------|-----------|
E|-9--9-9-9-|-7--7-7-7-|-9--9-9-9-10-9-7-5-|-9--9-9-9-|-7--7-7-7\-|


Chorus:

G|-------------|-------------|-------------|--------------|
D|-------------|-------------|-------------|--------------|  2X
A|-------------|-------------|-------------|--------------|
E|-5--5-5--5/\-|-7--7-7--7/\-|-9--9-9--9/\-|-10----10-9-7-|


then repeat Verse II 2X, Bridge 1X, Chorus 2X and Verse II 2X.


Bridge II:
                        3x
G|----------|------------|-----------|------------|
D|----------|------------|-----------|------------|  1X
A|-7--7-7-7-|-9--9-9-9-9-|-5-5-5-5-5-|-7--5-------|
E|----------|------------|-----------|-------9--7-|


Verse II 2X, Chorus 3X

Outro:

G|---|---|---|---------------|
D|---|---|---|---------------|
A|---|---|---|----0----------|
E|-5-|-7-|-9-|-10---10-9-7-5-|


=============================================================================

            
            
Suggest correction
Creating personal tab
Creating personal tab
You can edit any tab online and save it as your Personal.

You can edit, replace or remove any tab part or add personal notes – all changes will be seen only by you.

Personal tabs can be accessed anytime from any device, even offline.
Learn more »
Give kudos to tab author, rate the tab!
1 2 3 4 5
comments
print report bad tab
guest
You may want to rate the tab now too:
select rating
Wanna post a correction for this tab? Suggest correction