Oops, an error
Loading. Please wait.

Charlotte Sometimes Tab

version 1
version 1

Whole song

Interactive

6,251 views 12 this week
1 commentread comment
1 2 3 4 5
accurate
x 3
add to favorites
launch autoscroll
font size
0
reset
how to read this tab
guitar tuner
Tab Pro tools
  • play this tab
  • loop segment
  • change instrument
  • show fretboard
  • metronome
×
Best way to learn
"Charlotte Sometimes"
Autoscroll
slow
fast
+/-
esc
set tempo
stop
Contributor
-------------------------------------------------------------------------------
                         Charlotte Sometimes - The Cure
-------------------------------------------------------------------------------
Tabbed by: Gallagher2006

Tuning: Standard

Lovely song off the Singles compilations “Staring at the Sea”

Main Riff played with delay and reverb

e|---------------------------------------------------------------------------|
B|---------------------------------------------------------------------------|
G|----7-----9--10---9--7--5----7v--5-----------------------------------------|
D|-------------------------------------7-------------------------------------|
A|---------------------------------------------------------------------------|
E|---------------------------------------------------------------------------|

I don’t think UG lets us put lyrics on tabs anymore, so you’ll have to listen to
the song for the timing

Verse chords

Dm      (xx0231)
FMaj7   (x33210)
C       (x32010)
A5      (x022xx)

Chorus chords

F       (133211)
C       (x3555x)
G       (355433)
comments
We did not receive enough feedback on this tab! Please rate:
print report bad tab
1 2 3 4 5
1 comment total.
0 reply
Lemon Piper wrote on August 12 2013, 12:12 am

the first D should be D9 and the A5 sounds better as A#9 and the riff is way off. It should be

G|----9-----7--9--10---9--7----9-------
D|--------------------------------10---

I want to post or [tab]
guest
You may want to rate the tab now too:
select rating
Please do not post tabs as comments. Select "correction" instead!