Oops, an error
Loading. Please wait.

Close To Me Bass Tab

version 1
version 1

Whole song

Interactive

46,880 views 87 this week
6 commentsread comments
1 2 3 4 5
x 28
add to favorites
launch autoscroll
font size
0
reset
guitar tuner
backing track
0:00
0:00
×
Best way to learn
"Close To Me"
Autoscroll
slow
fast
+/-
esc
set tempo
stop
[Pattern 1]

G|---------------------------------------------------------------------------------------|
D|-----------------1--1------------------------------------------------------------------|
A|---2--2--2--2---------2--2--2--2--4--4---------------2--2------------------------------|
E|---------------------------------------------4--4--4--4--------2--2--2--2--0--0--------|


[Pattern 2]

G|---------------------------------------------------------------------------------------|
D|----------------1--1---------------1--1----------------1--1---------------1--1---------|
A|-------------------------------------------2--2--2--2---------2--2--2--2---------------|
E|---0--0--0--0--------0--0--0--0--------------------------------------------------------|


Song Order:

[Pattern 1]  (x8)
[Pattern 2]  (x2)
[Pattern 1]  (x4)
[Pattern 2]  (x2)
[Pattern 1]  (x4)
Suggest correction
comments
print report bad tab
6 comments total. Showing first comments.
0 reply
Mr. Abattoir 31 Jul 20, 2007 11:20 PM

Awesomke thanks

0 reply
misterstephen 10 Feb 14, 2008 11:27 AM

yeah good its works great **** stupid people that rated it bad

0 reply
L2DX 10 Jan 22, 2009 03:06 PM

missing licks, but right notes... good job

guest
You may want to rate the tab now too:
select rating
Wanna post a correction for this tab? Suggest correction