Oops, an error
Loading. Please wait.

Close To Me Bass

version 1
version 1

Whole song

Interactive

4,790 views 39 this week
no commentswrite comment
1 2 3 4 5
x 5
add to favorites
launch autoscroll
font size
0
reset
guitar tuner
backing track
0:00
0:00
×
Best way to learn
"Close To Me"
Autoscroll
slow
fast
+/-
esc
set tempo
stop
Author
Hello, this my first ever contribution to this site....

There are actually only two patterns in this song, here they are:

Pattern 1:

G]----------------------------------------------------|
D]---------1111---------------------------------------|
A]--2-2-2-2----2-2-2-2-4444-------1111----------------|
E]-------------------------4-4-4-4----2-2-2-2-0000----|

Pattern 2:

G]----------------------------------------------------|
D]--------------------------------1111-------1111-----|
A]---------4444------------2-2-2-2----2-2-2-2---------|
E]--0-0-0-0----0-0-0-0-2222---------------------------|

Have fun !!
Suggest correction
comments
print report bad tab
guest
You may want to rate the tab now too:
select rating
Wanna post a correction for this tab? Suggest correction