Oops, an error
Loading. Please wait.

Faith Bass Tab

version 1
version 1

Album

Whole song

Interactive

3,977 views 1 this week
2 commentsread comments
1 2 3 4 5
excellent!
x 4
add to favorites
launch autoscroll
font size
0
reset
guitar tuner
Tab Pro tools
  • play this tab
  • loop segment
  • change instrument
  • show fretboard
  • metronome
×
Best way to learn
"Faith"
Autoscroll
slow
fast
+/-
esc
set tempo
stop
The Holy Hour

Verse
G|-------3-3-2-2----------------|
D|----------------------3-3-2-2-|
A|-----0------------------------|
E|-3-3-----------3-3-0----------|

Chorus
G|------------------------------|
D|-------3-3-2-2--------3-3-2-2-|
A|------------------------------|
E|-3-3-1---------3-3-1----------|

Primary
 - tabbed by Sir Douglas

Intro
=====

G:X---X---X---X---|
D:X---X---X---X-0-|
A:X---X---X---X---|
E:X---X---X---X---|

2nd Intro
=========

G:----------------|----------------|----------------|7-7-7-6--------|
D:--------------2-|2-2-2-2-2-2-2-2-|--------------2-|7-7-7-7--------|
A:2-2-2-2-2-2-2-0-|0-0-0-0-0-0-0-0-|2-2-2-2-2-2-2-0-|---------------|
E:0-0-0-0-0-0-0---|----------------|0-0-0-0-0-0-0---|---------------|


Pre Chorus
==========

G:----------------|2-2-2-2-2-2-2-2-|----------------|7-7-7-6-6-6-6-6-|
D:----------------|0-0-0-0-0-0-0-0-|----------------|7-7-7-7-7-7-7-7-|
A:2-2-2-2-2-2-2-2-|----------------|2-2-2-2-2-2-2-2-|----------------|
E:0-0-0-0-0-0-0-0-|----------------|0-0-0-0-0-0-0-0-|----------------|


Chorus
======

Guitar 2 plays....
G:----------------|----------------|----------------|7-7-7-6-6-6-6-6-|
D:----------------|----------------|----------------|7-7-7-7-7-7-7-7-|
A:----------------|0-0-0-0-0-0-0-0-|----------------|----------------|
E:0-0-0-0-0-0-0-0-|----------------|0-0-0-0-0-0-0-0-|----------------|

Guitar 1 plays....
G:----------------|------2-2-2-2-2-|----------------|2-2-2-2-2-2-2-2-|
D:2-2-2-4-4-4-4-4-|2-2-2-2-2-2-2-2-|2-2-2-4-4-4-4-4-|2-2-2-2-2-2-2-2-|
A:2-2-2-2-2-2-2-2-|2-2-2-----------|2-2-2-2-2-2-2-2-|----------------|
E:----------------|----------------|----------------|----------------|


Coda 1
======

G:----------------|----------------|----------------|----------------|
D:5-5-5-5-5-5-5-5-|7-7-7-7-7-7-7-7-|5-5-5-5-5-5-5-5-|7-7-7-7-7-7-7-7-|
A:3-3-3-3-3-3-3-3-|5-5-5-5-5-5-5-5-|3-3-3-3-3-3-3-3-|7-7-7-7-7-7-7-7-|
E:----------------|----------------|----------------|----------------|


Coda 2
======

G:------------------------|------------------------|
D:12-12-12-12-12-12-12-12-|14-14-14-14-14-14-14-14-|
A:10-10-10-10-10-10-10-10-|12-12-12-12-12-12-12-12-|
E:------------------------|------------------------|  play this 3 times

then.....

G:------------------------|------------------------|
D:10-10-10-10-10-10-10-10-|10-10-10-10-17-17-17-17-|
A:8--8--8--8--8--8--8--8--|8--8--8--8--15-15-15-15-|
E:------------------------|------------------------|

G:------------------------|------------------------|
D:16-16-16-16-16-16-16-16-|19-19-19-19-19-19-19-19-|
A:14-14-14-14-14-14-14-14-|17-17-17-17-17-17-17-17-|
E:------------------------|------------------------|

Bit after Coda2
===============

Guitar 2 plays...

G:----------------|2-2-2-2-2-2-2-2-|----------------|7-7-7-6-6-6-6-6-|
D:----------------|0-0-0-0-0-0-0-0-|----------------|7-7-7-7-7-7-7-7-|
A:2-2-2-2-2-2-2-2-|----------------|2-2-2-2-2-2-2-2-|----------------|
E:0-0-0-0-0-0-0-0-|----------------|0-0-0-0-0-0-0-0-|----------------|

Guitar 1 plays...

G:----------------|7-7-7-7---------|----------------|7-7-7-7---------|
D:----------------|9-9-9-9---------|----------------|9-9-9-9---------|
A:----------------|8-8-8-8---------|----------------|8-8-8-8---------|
E:----------------|----------------|----------------|----------------|

FINAL CHORUS
============

G:----------------|------2-2-2-2-2-|----------------|2-2-2-2-2-2-2-2-|
D:2-2-2-4-4-4-4-4-|2-2-2-2-2-2-2-2-|2-2-2-4-4-4-4-4-|2-2-2-2-2-2-2-2-|
A:2-2-2-2-2-2-2-2-|2-2-2-----------|2-2-2-2-2-2-2-2-|----------------|
E:----------------|----------------|----------------|----------------|

Ok... now to put this together.....

Play  INTRO           x 1
      INTRO2          x 4
      Chorus          x 2
      Verse           x 4
      Pre-Chorus      x 2
      Chorus          x 2
      Verse           x 4
      Coda1           x 1
      INTRO2          x 2
      Chorus          x 2
      Verse           x 4
      Coda2           x 1
      Bit after Coda2 x 4
      Final Chorus    x 4

4th time playing FINAL CHORUS play A:2-------| (this bit ends the song)
                                   E:0-------| (Both guitars play this bit)

Other Voices

figure 1--repeat 8 times


G---|---------------|-------------------|
D---|---------------|-------------------|
A---|----------5----|-------------------|
E-5-|-7--7-7-7----0-|-2--2-2-2-3--2-0-5-|


figure 2--substitute 1st note of this figure with last note of figure one on the 8th time

G---|----------------|------------------|---------------|------------------|
D---|----------------|------------------|---------------|------------------|
A-5-|-7--7-7-7-----2-|-4--4-4-4-5-4-2-5-|-7--7-7-7----2-|-4--4-4-4-5-4-----|
E---|-----------3----|------------------|----------3----|--------------2-5-|


repeat figure 1 4 times.... keep playing figure 1 on 1st verse--"whisper you name..."


figure 3--verse 1


G-----------------|------------------|---------------|---------------|
D-----------------|------------------|---------------|---------------|
A-----------------|------------------|---------------|---------------|
E-2--2-2-2-2-3-3--|-0--0-0-0-0-2-3-0-|-2--2-2-2-3--0-|-2--2-2-2-3--0-|


back to figure 1...


figure 4 (verse 2)--repeat 3 times


G------------------|------------------|--------------|------------------|
D------------------|------------------|--------------|------------------|
A-4--4-4-4-4-----4-|-5--5-5-5-5-------|--------------|------------------|
E------------0-2---|------------0-2-5-|-7--7-7-7-7-5-|-2--2-2-2-5-0-2-5-|


on the 3rd repeat, skip the las bar & go straight into figure 1, playing figure 1 until the end


All Cats Are Grey

Transcribed by: Damian Pamminger (TwitcheD_85@hotmail.com)

Standard tuning: E A D G

Pause

|---------------------------------------------------------------------------|
|---------------------------------------------------------------------------|
| -------------------------7--7--7--7--7--7--7--7--5--5--5--5--5--5--5--5---|
| 4--4--4--4--4--4--4--4/---------------------------------------------------|

| ------------------------|------------| -----------------------------------------|
| ------------------------|---REPEAT-- | -----------------------------------------|
| ------------------------|-three-more-| -----------------------------------------|
|-7--7--7--7--7--7--7--7-|----times---|-8--8--8--8--8--8--8--8--7--7--7--7--7-----|

| ---------|------------|----------------------------------------------------|
| ---------|---REPEAT-- |----------------------------------------------------|
| ---------|-three-more-|----------------------------------------------------|
|-7--7--7-|---times---- |-5--5--5--5--5--5--5--5--5--5--5--5--5--5--5--5-----|

|--------| PLAY THIS WHOLE THING THREE TIMES
|-REPEAT-|
|--------|
|--------|

| -------------------------------------------------|--------------|
| -------------------------------------------------|--REPEAT------|
| -------------------------------------------------|-three-more---|
|-5--5--5--5--5--5--5--5--5--5--5--5--5--5--5--5-|---times--------|

|------------------------------------------------- |----------|
|------------------------------------------------- |-REPEAT---|
|------------------------------------------------- |----------|
|-3--3--3--3--3--3--3--3--3--3--3--3--3--3--3--3-|------------|

| ---------------------------------------------------------------------------------|
| ---------------------------------------------------------------------------------|
| ---------------------------------------------------------------------------------|
|-5--5--5--5--5--5--5--5--5--5--5--5--5--5--5--5--5--5--5--5--5--5--5--5--5--5-----|

| ---------------------------------------------------------------------------------|
| ---------------------------------------------------------------------------------|
| ---------------------------------------------------------------------------------|
|-5--5--5--5--5--5--3--3--3--3--3--3--3--3--3--3--3--3--3--3--3--3--3--3--3--3-----|

|-------------------------------------|----------|--------------------------------|
|-------------------------------------|--REPEAT--|--------------------------------|
|-------------------------------------|-two-more-|--------------------------------|
|-3--3--3--3--3--3--3--3--3--3--3--3-|---times-- |-5--5--5--5...-until-end-fade---|


The Funeral Party

Transcribed by Damian Pamminger (TwitcheD_85@hotmail.com)

Standard tuning: E A D G

|-------| --------------------------------|------------|---------------------------|
|-------| --------------------------------|---REPEAT---|---------------------------|
|---1-/-|-6-------8--8-\--3-------1--1-/-|-seven-more-|-11--11--11--11--11--11-----|
|-------| --------------------------------| ---times----|--------------------------|

|-----------------------------------------------| --------------------------|
|-----------------------------------------------| --------------------------|
|-11--11--11--11--11--11--11--11/-13-13-13-\--| -6-------8-8-8-\--3---------|
|-----------------------------------------------| --------------------------|

|----------|------------ |-----------------------------------------------------|
|----------|---REPEAT--- | ----------------------------------------------------|
|-1-1-1-/--|-seven-more- |-11--11--11--11--11--11--11-11-11-11--11--11--11-----|
|----------|----times----|-----------------------------------------------------|

|------------------------|-------------------------------------| --------------|
|------------------------|-------------------------------------|---REPEAT------|
|-11--11/-13-13-13-13-\-| -6-------8-8-8-8-\-3-------1-1-1-1/-|-seven-more-----|
|------------------------|-------------------------------------|----times------|

|----------------------------------------------------------------------------|
|----------------------------------------------------------------------------|
|-11--11--11--11--11--11--11-11-11-11-11--11--11--11--11--11/-13--13-\-------|
|----------------------------------------------------------------------------|

| --------------------------------|------------|-----------------------------------|
| --------------------------------|---REPEAT---|-----------------------------------|
|-6-------8--8-\--3-------1--1-/-|-seven-more-|-11--11--11--11--11--11--11--11-----|
| --------------------------------| ---times----|----------------------------------|

| ------------------------------------|-------------------------------|----------|
| ------------------------------------|-------------------------------|-REPEAT---|
|-11--11--11--11--11--11/-13--13-\--|-6-------8--8-\-3-------1--1-/-|------------|
| ------------------------------------|-------------------------------|----------|

|------------------|
|------------------| Pause until end
|-6----------------|
|------------------|


Doubt

The Basic Rhythm
G ---------------------------------|
D ---------------------------------|
A -------------------3-3-3-2-2-----|
E -0-0-3-3-2-1-1-1-1---------------|

First Chorus - "Screaming Throw Myself..."
G ----------------------------------|
D ----------------------------------|
A ------------------3-3-3-5-5-5-5-5-|
E -5-5-5--3-3-3-3-3-----------------|

Second Chorus - "Kiss You Once..."
G ---------------------------------------------------------------------|
D ---------------------------------------------------------------------|
A -----------------------------------------------9-9---------------9-9-|
E -1-1-1-1-1-1-1-1-1-1-1-1-1-1-1-1-5-5-5-3-3-3-3-----5-5-5-3-3-3-3-----|

"Life...ooohhh..."
G ------------------------|
D ------------------------|
A ---2-----2-----4-----4--|
E -3---3-3---3-5---5-5--5-|

Repeat Rhythm And End On Open E


The Drowning Man

Bass tabs by IncurableNikki
IncurableNikki@yahoo.com

The asterisk (*) means to repeat the note. Enjoy!


G-|19*******18******\15**************/|19*******18******\15***************\|
D-|-----------------------------------|------------------------------------|
A-|-----------------------------------|------------------------------------|
E-|-----------------------------------|------------------------------------|


G-|12*******11******8888888888888888|12*******11******8888888888888888|
D-|---------------------------------|---------------------------------|
A-|---------------------------------|---------------------------------|
E-|---------------------------------|---------------------------------|


G-|7777777766666666----------------|7777777766666666----------------|
D-|----------------8888888888888888|----------------8888888888888888|
A-|--------------------------------|--------------------------------|
E-|--------------------------------|--------------------------------|


G-|--------------------------------|--------------------------------|
D-|5555555544444444----------------|5555555544444444----------------|
A-|----------------6666666666666666|----------------6666666666666666|
E-|--------------------------------|--------------------------------|

(she stands 12 feet…)
G-|---------------------------------|--------------------------------|
D-|---------------------------------|--------------------------------|
A-|5555555544444444\111111111111111/|555555554444444\1111111111111111|
E-|---------------------------------|--------------------------------|

(one by one her senses die)
G-|---------------------------------|---------------------------------|
D-|---------------------------------|---------------------------------|
A-|---------------2/666666666666666\|---------------2/6666666666666666|
E-|333333332222222------------------|388888882222222------------------|

(leave her)
G-|---------------------------------|--------------------------------|
D-|---------------------------------|--------------------------------|
A-|5555555544444444\111111111111111/|555555554444444\1111111111111111|
E-|---------------------------------|--------------------------------|


G-|---------------------------------|---------------------------------|
D-|---------------------------------|---------------------------------|
A-|---------------2/666666666666666\|---------------2/6666666666666666|
E-|333333332222222------------------|388888882222222------------------|

(starting at the violent sound)
G-|---------------------------------|--------------------------------|
D-|---------------------------------|--------------------------------|
A-|5555555544444444\111111111111111/|555555554444444\1111111111111111|
E-|---------------------------------|--------------------------------|

(drowns her at its ease)
G-|---------------------------------|---------------------------------|
D-|---------------------------------|---------------------------------|
A-|---------------2/666666666666666\|---------------2/6666666666666666|
E-|333333332222222------------------|388888882222222------------------|


G-|---------------------------------|--------------------------------|
D-|---------------------------------|--------------------------------|
A-|5555555544444444\111111111111111/|555555554444444\1111111111111111|
E-|---------------------------------|--------------------------------|


G-|---------------------------------|---------------------------------|
D-|---------------------------------|---------------------------------|
A-|---------------2/666666666666666\|---------------2/6666666666666666|
E-|333333332222222------------------|388888882222222------------------|

I would have left the world all bleeding
G-|19*******18******\15**************/|19*******18******\15***************\|
D-|-----------------------------------|------------------------------------|
A-|-----------------------------------|------------------------------------|
E-|-----------------------------------|------------------------------------|

Everything was true…
G-|12*******11******8888888888888888|12*******11******8888888888888888|
D-|---------------------------------|---------------------------------|
A-|---------------------------------|---------------------------------|
E-|---------------------------------|---------------------------------|

Words all left me…
G-|7777777766666666----------------|7777777766666666----------------|
D-|----------------8888888888888888|----------------888888888888888\|
A-|--------------------------------|--------------------------------|
E-|--------------------------------|--------------------------------|

                   Dreaming like the drowning man…
G-|--------------------------------|--------------------------------|
D-|5555555544444444----------------|5555555544444444----------------|
A-|----------------6666666666666666|----------------6666666666666666|
E-|--------------------------------|--------------------------------|


G-|---------------------------------|--------------------------------|
D-|---------------------------------|--------------------------------|
A-|5555555544444444\111111111111111/|555555554444444\1111111111111111|
E-|---------------------------------|--------------------------------|


G-|---------------------------------|---------------------------------|
D-|---------------------------------|---------------------------------|
A-|---------------2/666666666666666\|---------------2/6666666666666666|
E-|333333332222222------------------|333333332222222------------------|


G-|---------------------------------|---------------------------------|
D-|------------------------88--88-8-|---------------------------------|
A-|---------------2/6666666--66--6-6|---------------2/666666666666666\|
E-|333333332222222------------------|333333332222222------------------|


G-|---------------------------------|
D-|---------------------------------|
A-|---------------2/6666666666666666|
E-|333333332222222------------------|


Faith

Rhythm figure 1:

 G--7--7--7--5---5--5--5--4--4--4---2--2--2--2-------------|
 D---------------------------------------------------------|
 A---------------------------------------------------------|
 E---------------------------------------------------------|
  end rhythm figure 1

 Rhythm figure 2:

 G--2--2--2--4---4--4--4--0--0--0--2---2--2--2-------------|
 D---------------------------------------------------------|
 A---------------------------------------------------------|
 E---------------------------------------------------------|

  end rhythm figure 2

 Rhytym figure 3:

 G--5--5--5--2---2--2--2--5--5--5---2--2--2--2--4--4--4--0-|
 D---------------------------------------------------------|
 A---------------------------------------------------------|
 E---------------------------------------------------------|

 G--0--0--0--2--2--2---0--0--0--0----10--10--10--10--9--9--|
 D---------------------------------------------------------|
 A---------------------------------------------------------|
 E---------------------------------------------------------|

 G--9--9--7--7--7--5---5--5--5---10--10--10--10--9--9--9--9-|
 D----------------------------------------------------------|
 A----------------------------------------------------------|
 E----------------------------------------------------------|

 G--7--7--7--5---5--5--5---8--8--8--4---4--4--4--8--8--8--4-|
 D----------------------------------------------------------|
 A----------------------------------------------------------|
 E----------------------------------------------------------|

 G--4--4--4--7--7--7--3---3--3--3--7--7--7--3---3--3--3----|
 D---------------------------------------------------------|
 A---------------------------------------------------------|
 E---------------------------------------------------------|

  end rhythm figure 3
comments
print report bad tab
2 comments total.
0 reply
swave75 wrote on June 1 2011, 08:46 pm

Thank you for tabbing this great album!!! And for bass too!!!

0 reply
godisinthetv wrote on January 10 2013, 07:06 pm

amazing thanks

I want to post or [tab]
guest
You may want to rate the tab now too:
select rating
Please do not post tabs as comments. Select "correction" instead!