Oops, an error
Loading. Please wait.

Fascination Street tab

version 3
version 3

Whole song

Interactive

18,976 views 78 this week
1 commentread comment
1 2 3 4 5
x 14
add to favorites
×
Save as Personal and add changes to this tab that will be seen only by you. Learn more ›
×
You can save this tab as Personal to edit and correct it or add notes. All changes will be seen only by you. Learn more »
launch autoscroll
font size
0
reset
how to read this tab
guitar tuner
backing track
0:00
0:00
edit
Autoscroll
slow
fast
+/-
esc
set tempo
stop
Author
Difficulty
The Cure - Fascination Street
Tabbed By: extendafist
Email: ruddick.brandon@yahoo.com
Tuning: Standard

[Intro]
e|-6-666-66------6-666-66------6-666-66------6-666-66/8|
B|-----------34------------34------------34------------|
G|-----------------------------------------------------|
D|-----------------------------------------------------|
A|-----------------------------------------------------|
E|-----------------------------------------------------|

[Figure 1]
e|-8-----|
B|--10---|
G|----8--|
D|-----10|
A|-------|
E|-------|

[Figure 2]
e|----------------------------|
B|----------4-3--------1-----6|
G|--------5----3------1-----3-|
D|------5-------3----1-----3--|
A|----3-----------------------|
E|-3--------------------------|

[Figure 3]
e|-------15-------15------------------------15-------15-18-18-18-18-16-15|
B|-16-18----16-18----16-13-13-13---16-16-18----16-18---------------------|
G|-----------------------------------------------------------------------|
D|-----------------------------------------------------------------------|
A|-----------------------------------------------------------------------|
E|-----------------------------------------------------------------------|

[Figure 4]
e|-6---6-4-3---4-1|
B|----------------|
G|----------------|
D|----------------|
A|----------------|
E|----------------|

[Figure 5]
e|-8-10-9-8--8-10-9-8--4-10-9-8--6-10-11-13------------------------------|
B|-----------------------------------------------------------------------|
G|-----------------------------------------------------------------------|
D|-----------------------------------------------------------------------|
A|-----------------------------------------------------------------------|
E|-----------------------------------------------------------------------|

[Figure 6]
e|-10--8--3--10-10-8-3|
B|--------------------|
G|--------------------|
D|--------------------|
A|--------------------|
E|--------------------|

[Figure 7]
e|-15-15-15-13-13-13-11-11-11-10-10|
B|---------------------------------|
G|---------------------------------|
D|---------------------------------|
A|---------------------------------|
E|---------------------------------|

[Figure 8]
e|-8-8-8-6-6-6-4-4-3-3|
B|--------------------|
G|--------------------|
D|--------------------|
A|--------------------|
E|--------------------|

[Order]
        Guitar 1             Guitar 2              Guitar 3
        Intro x4
       Figure 1 x4
       Figure 1 x4          Figure 2 x2            Intro x1
       Figure 3 x2                                 Intro x2
       Figure 4 x2
       Figure 1 x4
       Figure 5 x2

============================================================================
Enjoy the tab!

The last minute of the song is not in the order because there are to many
guitars going at the same time for me to hear it properly. Basically it's just all the 
figures repeating themselves until the end of the song.

This is the tab for the Track on The Cure's album, Disintigration. Tracks of the same 
from another album (such as Mixed Up) can be played using this tab. All the parts are the 
but they may come in at different parts of the song.

Email me any corrections or comments at ruddick.brandon@yahoo.com

You can only use this tab for your own private uses. The contents of this tab are the 
own work and may not be recreated or distributed.
============================================================================

            
            
Suggest correction
Creating personal tab
Creating personal tab
You can edit any tab online and save it as your Personal.

You can edit, replace or remove any tab part or add personal notes – all changes will be seen only by you.

Personal tabs can be accessed anytime from any device, even offline.
Learn more »
comments
print report bad tab
1 comment total.
0 reply
MrChair2413 10 Sep 19, 2013 06:16 PM

Great tab. but in figure 5, instead of 10, it should be 11.

guest
You may want to rate the tab now too:
select rating
Wanna post a correction for this tab? Suggest correction