Oops, an error
Loading. Please wait.
We have Chord Pro version of Friday Im In Love.
It's the closest thing you can get to the original song and it has interactive parts. Check out the tab »
×
1,735 views 84 this week
no commentswrite comment
1 2 3 4 5
x 9
add to favorites
×
Save as Personal and add changes to this tab that will be seen only by you. Learn more ›
×
You can save this tab as Personal to edit and correct it or add notes. All changes will be seen only by you. Learn more »
launch autoscroll
font size
0
reset
transpose
0
reset
display chords
guitar tuner
edit
Autoscroll
slow
fast
+/-
esc
set tempo
stop
Author
Difficulty
Strumming
There is no strumming pattern for this song yet. and get +5 IQ
A couple of intro interpretations (in a different key to make them easier to play). There is also some break/
outro noodling that I'll work on. As usual for Uke it's an interpretation as the original has probably
not been played on Uke by Bob and the band.

[Intro]
G    C     G     D     Em    C     G     D 


[Intro 1]
                 G              C                  G            D
A|----0-2-0---0---|2---2-0h2-2---|0---0---0-3-2-0---|0h2-2---2-2---|5-5---3---2---0---|
E|--3-------3-----|--------------|----------------3-|--------------|------------------|
C|2---------------|--------------|------------------|--------------|------------------|
G|----------------|--------------|------------------|--------------|------------------|

 Em                            G             D
A|0---2-0---2-2---0---0---0---3-2-0-|----------------|
E|----------------------------------|3-3---------0---|
C|----------------------------------|------2---2----2|
G|----------------------------------|----------------|
                                         

[Intro 2]
                 G                C                  G                D
A|----0-2-0---0-|0h2---2---2-2---|0---0---0-3-2-0---|0h2---2---2-2---|5---5-3---2---0|
E|--3-------3---|3-3---3---3-3---|3---3---3-3-3-3---|3-3---3---3-3---|2---2-2---2---2|
C|2-------------|2-2---2---2-2---|2---2---2-2-2-2---|2-2---2---2-2---|2---2-2---2---2|
G|--------------|0-0---0---0-0---|0---0---0-0-0-0---|0-0---0---0-0---|2---2-2---2---2|

  Em                                 G               D
A|0---2-0---2-2---0---0---0---3-2-0-|2-2--------------|
E|0---0-0---0-0---0---0---0---0-0-0-|3-3---------0----|
C|4---4-4---4-4---4---4---4---0-0-0-|2-2---2---2-----2|
G|0---4-0---0-0---0---0---0---0-0-0-|0-0--------------|


[Verse 1]
G                C            
I don't care if Monday's blue
G                  D             
Tuesday's grey and Wednesday too
Em               C              
Thursday I don't care about you
      G             D   
It's Friday I'm in love


[Verse 2]
G              C          
Monday you can fall apart
 G                D              
Tuesday Wednesday break my heart
Em               C          
Thursday doesn't even start
     G             D    
it's Friday I'm in love

[Chorus 1]
C        D        
Saturday wait and
Em            C              
Sunday always comes too late
    G            D           
but Friday never hesitates...


[Verse 3]
G               C              
i don't care if Monday's black
G                 D            
Tuesday Wednesday heart attack
Em             C            
Thursday never looking back
     G             D    
it's Friday I'm in love


[Verse 4]
G              C              
Monday you can hold your head
G                 D           
Tuesday Wednesday stay in bed
   Em                 C             
Or Thursday watch the walls instead
     G             D    
It's Friday I'm in love


[Chorus 2]
C        D        
Saturday wait and
Em            C              
Sunday always comes too late
    G            D           
but Friday never hesitates...


[Break]
Em                   C  
 Dressed up to the eyes
                       G  
It's a wonderful surprise
               D                      Em  
To see your shoes and your spirits rise
                      C  
Throwing out your frown
                            G  
And just smiling at the sound
                       D  
And as sleek as a shriek
                        Em 
Spinning round and round
                      C 
Always take a big bite
                          G 
It's such a gorgeous sight
             D                          Em  
To see you eat in the middle of the night
                        C 
You can never get enough
                    G 
Enough of this stuff
            
It's Friday
        D   
I'm in love
Suggest correction
Creating personal tab
Creating personal tab
You can edit any tab online and save it as your Personal.

You can edit, replace or remove any tab part or add personal notes – all changes will be seen only by you.

Personal tabs can be accessed anytime from any device, even offline.
Learn more »
comments
print report bad tab
guest
You may want to rate the tab now too:
select rating
Wanna post a correction for this tab? Suggest correction