Oops, an error
Loading. Please wait.

Friday Im In Love Tab

version 3
version 3

Intro

Whole song

Interactive

37 views 3 this week
no commentswrite comment
1 2 3 4 5
2 more votes to show rating
add to favorites
launch autoscroll
font size
0
reset
how to read this tab
guitar tuner
Autoscroll
slow
fast
+/-
esc
set tempo
stop
Help us to improve Ultimate-Guitar.com Take our survey!
×
Author
Difficulty
About this tab version
More accurate and more interesting. Was this info helpful? Yes No
[Intro]

e|---------0-2-0----0-------2-2-2-0-2-3-3-2-0-------2-2-2-0-2-5-5-3-2-0------|
B|-------3-------3----------------------------3------------------------------|
G|-----2---------------------------------------------------------------------|
D|---------------------------------------------------------------------------|
A|---------------------------------------------------------------------------|
E|---------------------------------------------------------------------------|

e|-----------10-9-7-----------2---0-2-0--------------------------------------|
B|------------------8-----------3--------------------------------------------|
G|--------7------------------------------------------------------------------|
D|------9--------------------------------------------------------------------|
A|---------------------------------------------------------------------------|
E|---------------------------------------------------------------------------|

Hope you enjoy it!
Suggest correction
Give kudos to tab author, rate the tab!
1 2 3 4 5
comments
print report bad tab
guest
You may want to rate the tab now too:
select rating
Wanna post a correction for this tab? Suggest correction