Oops, an error
Loading. Please wait.

From The Edge Of The Deep Green Sea bass

version 1
version 1

Whole song

Interactive

1,498 views 3 this week
no commentswrite comment
1 2 3 4 5
x 4
add to favorites
×
Save as Personal and add changes to this tab that will be seen only by you. Learn more ›
×
You can save this tab as Personal to edit and correct it or add notes. All changes will be seen only by you. Learn more »
launch autoscroll
font size
0
reset
guitar tuner
edit
Autoscroll
slow
fast
+/-
esc
set tempo
stop
Author
Difficulty
Song:   From The Edge Of The Deep Green Sea
Artist: The Cure
Album:  Wish (1992)
URL:    
http://www.youtube.com/watch?v=3l4q-zUgJTo;http://en.wikipedia.org/wiki/Wish_%28The_Cure_album%29
Time:   4/4
Tuning: Standard (EADG)


  (Intro) Bar x5
G|------------------|-----9--------9----|-----9--------7----|-----9--------9----|
D|------------------|-------------------|-0-0----0-0-0------|-------------------|
A|------------------|-7-7----7-7-7------|-------------------|-7-7----7-7-7------|
E|------------------|-------------------|-------------------|-------------------|

G|-----9--------7----|-----9--------9----|-----9--------7----|-----9--------9----|
D|-0-0----0-0-0------|-------------------|-0-0----0-0-0------|-------------------|
A|-------------------|-7-7----7-7-7------|-------------------|-7-7----7-7-7------|
E|-------------------|-------------------|-------------------|-------------------|

G|-----9--------7----|-----9--------9----|-----9--------7----|-----9--------9----|
D|-0-0----0-0-0------|-------------------|-0-0----0-0-0------|-------------------|
A|-------------------|-7-7----7-7-7------|-------------------|-7-7----7-7-7------|
E|-------------------|-------------------|-------------------|-------------------|

G|-----9--------7----|-----9--------9----|-----9--------7----|-----9--------9----|
D|-0-0----0-0-0------|-------------------|-0-0----0-0-0------|-------------------|
A|-------------------|-7-7----7-7-7------|-------------------|-7-7----7-7-7------|
E|-------------------|-------------------|-------------------|-------------------|

  (Lead refrain)
G|-----9--------7----|-----9--------7----|-----9--------7----|-----9-------------|
D|-0-0----0-0-0------|-------------------|-------------------|--------------12---|
A|-------------------|-7-7----7-7-7---7--|-9-9----9-9-9---9--|-1010---101010--10-|
E|-------------------|-------------------|-------------------|-------------------|

G|--------------12---|-----9--------7----|-----9--------7----|-----9-------------|
D|-----14------------|-------------------|-------------------|--------------12---|
A|-1212---121212--12-|-7-7----7-7-7---7--|-9-9----9-9-9---9--|-1010---101010--10-|
E|-------------------|-------------------|-------------------|-------------------|

G|--------------12---|-----9--------7----|-----9--------7----|-----9-------------|
D|-----14------------|-------------------|-------------------|--------------12---|
A|-1212---121212--12-|-7-7----7-7-7---7--|-9-9----9-9-9---9--|-1010---101010--10-|
E|-------------------|-------------------|-------------------|-------------------|

G|--------------12---|-----9--------7----|-----9--------7----|-----9-------------|
D|-----14------------|-------------------|-------------------|--------------12---|
A|-1212---121212--12-|-7-7----7-7-7---7--|-9-9----9-9-9---9--|-1010---101010--10-|
E|-------------------|-------------------|-------------------|-------------------|

  Every time
G|--------------12---|-----9--------7----|-----9--------7----|-----9-------------|
D|-----14------------|-------------------|-------------------|--------------12---|
A|-1212---121212--12-|-7-7----7-7-7---7--|-9-9----9-9-9---9--|-1010---101010--10-|
E|-------------------|-------------------|-------------------|-------------------|

G|--------------12---|-----9--------7----|-----9--------7----|-----9-------------|
D|-----14------------|-------------------|-------------------|--------------12---|
A|-1212---121212--12-|-7-7----7-7-7---7--|-9-9----9-9-9---9--|-1010---101010--10-|
E|-------------------|-------------------|-------------------|-------------------|

G|--------------12---|-----9--------7----|-----9--------7----|-----9-------------|
D|-----14------------|-------------------|-------------------|--------------12---|
A|-1212---121212--12-|-7-7----7-7-7---7--|-9-9----9-9-9---9--|-1010---101010--10-|
E|-------------------|-------------------|-------------------|-------------------|

G|--------------12---|-----9--------7----|-----9--------7----|-----9-------------|
D|-----14------------|-------------------|-------------------|--------------12---|
A|-1212---121212--12-|-7-7----7-7-7---7--|-9-9----9-9-9---9--|-1010---101010--10-|
E|-------------------|-------------------|-------------------|-------------------|

                             Right here                               Right here
G|--------------12---|-----9--------7----|-----9--------7----|-----9-------------|
D|-----14------------|-------------------|-------------------|--------------12---|
A|-1212---121212--12-|-7-7----7-7-7---7--|-9-9----9-9-9---9--|-1010---101010--10-|
E|-------------------|-------------------|-------------------|-------------------|

  (Lead refrain)
G|--------------12---|-----9--------7----|-----9--------7----|-----9-------------|
D|-----14------------|-------------------|-------------------|--------------12---|
A|-1212---121212--12-|-7-7----7-7-7---7--|-9-9----9-9-9---9--|-1010---101010--10-|
E|-------------------|-------------------|-------------------|-------------------|

G|--------------12---|-----9--------7----|-----9--------7----|-----9-------------|
D|-----14------------|-------------------|-------------------|--------------12---|
A|-1212---121212--12-|-7-7----7-7-7---7--|-9-9----9-9-9---9--|-1010---101010--10-|
E|-------------------|-------------------|-------------------|-------------------|

  And so we watch
G|--------------12---|-----9--------7----|-----9--------7----|-----9-------------|
D|-----14------------|-------------------|-------------------|--------------12---|
A|-1212---121212--12-|-7-7----7-7-7---7--|-9-9----9-9-9---9--|-1010---101010--10-|
E|-------------------|-------------------|-------------------|-------------------|

G|--------------12---|-----9--------7----|-----9--------7----|-----9-------------|
D|-----14------------|-------------------|-------------------|--------------12---|
A|-1212---121212--12-|-7-7----7-7-7---7--|-9-9----9-9-9---9--|-1010---101010--10-|
E|-------------------|-------------------|-------------------|-------------------|

                                                                 'Goodbye'!
G|--------------12---|-----9--------7----|-----9--------7----|-----9-------------|
D|-----14------------|-------------------|-------------------|--------------12---|
A|-1212---121212--12-|-7-7----7-7-7---7--|-9-9----9-9-9---9--|-1010---101010--10-|
E|-------------------|-------------------|-------------------|-------------------|

  (Lead Solo 1)
G|--------------12---|-------------------|-------------------|-------------------|
D|-----14------------|-----2--------0----|-----2--------0----|-----2--------0----|
A|-1212---121212--12-|-------------------|-2-2----2-2-2---2--|-3-3----3-3-3---3--|
E|-------------------|-0-0----0-0-0---0--|-------------------|-------------------|

G|-------------------|-------------------|-------------------|-------------------|
D|-----2--------5----|-----2--------0----|-----2--------0----|-----2--------0----|
A|-0-0----0-0-0---0--|-------------------|-2-2----2-2-2---2--|-3-3----3-3-3---3--|
E|-------------------|-0-0----0-0-0---0--|-------------------|-------------------|

  I've never been so
G|-------------------|-------------------|-------------------|-------------------|
D|-----2--------5----|-----2--------0----|-----2--------0----|-----2--------0----|
A|-0-0----0-0-0---0--|-------------------|-2-2----2-2-2---2--|-3-3----3-3-3---3--|
E|-------------------|-0-0----0-0-0---0--|-------------------|-------------------|

G|-------------------|-------------------|-------------------|-------------------|
D|-----2--------5----|-----2--------0----|-----2--------0----|-----2--------0----|
A|-0-0----0-0-0---0--|-------------------|-2-2----2-2-2---2--|-3-3----3-3-3---3--|
E|-------------------|-0-0----0-0-0---0--|-------------------|-------------------|

G|-------------------|-------------------|-------------------|-------------------|
D|-----2--------5----|-----2--------0----|-----2--------0----|-----2--------0----|
A|-0-0----0-0-0---0--|-------------------|-2-2----2-2-2---2--|-3-3----3-3-3---3--|
E|-------------------|-0-0----0-0-0---0--|-------------------|-------------------|

G|-------------------|-------------------|-------------------|-------------------|
D|-----2--------5----|-----2--------0----|-----2--------0----|-----2--------0----|
A|-0-0----0-0-0---0--|-------------------|-2-2----2-2-2---2--|-3-3----3-3-3---3--|
E|-------------------|-0-0----0-0-0---0--|-------------------|-------------------|

G|-------------------|-----9--------7----|-----9--------7----|-----9-------------|
D|-----2--------5----|-------------------|-------------------|--------------12---|
A|-0-0----0-0-0---0--|-7-7----7-7-7---7--|-9-9----9-9-9---9--|-1010---101010--10-|
E|-------------------|-------------------|-------------------|-------------------|

  Not just for today
G|--------------12---|-----9--------7----|-----9--------7----|-----9-------------|
D|-----14------------|-------------------|-------------------|--------------12---|
A|-1212---121212--12-|-7-7----7-7-7---7--|-9-9----9-9-9---9--|-1010---101010--10-|
E|-------------------|-------------------|-------------------|-------------------|

G|--------------12---|-----9--------7----|-----9--------7----|-----9-------------|
D|-----14------------|-------------------|-------------------|--------------12---|
A|-1212---121212--12-|-7-7----7-7-7---7--|-9-9----9-9-9---9--|-1010---101010--10-|
E|-------------------|-------------------|-------------------|-------------------|

                                                              Never, never, never
G|--------------12---|-----9--------7----|-----9--------7----|-----9-------------|
D|-----14------------|-------------------|-------------------|--------------12---|
A|-1212---121212--12-|-7-7----7-7-7---7--|-9-9----9-9-9---9--|-1010---101010--10-|
E|-------------------|-------------------|-------------------|-------------------|

G|--------------12---|-----9--------7----|-----9--------7----|-----9-------------|
D|-----14------------|-------------------|-------------------|--------------12---|
A|-1212---121212--12-|-7-7----7-7-7---7--|-9-9----9-9-9---9--|-1010---101010--10-|
E|-------------------|-------------------|-------------------|-------------------|

G|--------------12---|-----9--------7----|-----9--------7----|-----9-------------|
D|-----14------------|-------------------|-------------------|--------------12---|
A|-1212---121212--12-|-7-7----7-7-7---7--|-9-9----9-9-9---9--|-1010---101010--10-|
E|-------------------|-------------------|-------------------|-------------------|

G|--------------12---|-----9--------7----|-----9--------7----|-----9-------------|
D|-----14------------|-------------------|-------------------|--------------12---|
A|-1212---121212--12-|-7-7----7-7-7---7--|-9-9----9-9-9---9--|-1010---101010--10-|
E|-------------------|-------------------|-------------------|-------------------|

                                                     I wish I could just
G|--------------12---|-----9--------7----|-----9--------7----|-----9-------------|
D|-----14------------|-------------------|-------------------|--------------12---|
A|-1212---121212--12-|-7-7----7-7-7---7--|-9-9----9-9-9---9--|-1010---101010--10-|
E|-------------------|-------------------|-------------------|-------------------|

G|--------------12---|-----4--------0----|-----4--------0----|-----4--------4----|
D|-----14------------|-------------------|-------------------|-------------------|
A|-1212---121212--12-|-2-2----2-2-2---2--|-3-3----3-3-3---3--|-5-5----5-5-5---5--|
E|-------------------|-------------------|-------------------|-------------------|

G|-------------------|-----4--------0----|-----4--------0----|-----4--------4----|
D|-----5--------5----|-------------------|-------------------|-------------------|
A|-7-7----7-7-7---7--|-2-2----2-2-2---2--|-3-3----3-3-3---3--|-5-5----5-5-5---5--|
E|-------------------|-------------------|-------------------|-------------------|

  Over you                              Over you
G|------------------|------------------|------------------|------------------|
D|------------------|------------------|------------------|------------------|
A|------------------|------------------|------------------|------------------|
E|------------------|------------------|------------------|------------------|

                                        How much more
G|------------------|------------------|-----9--------9----|-----9--------7----|
D|------------------|------------------|-------------------|-0-0----0-0-0------|
A|------------------|------------------|-7-7----7-7-7------|-------------------|
E|------------------|------------------|-------------------|-------------------|

G|-----9--------9----|-----9--------7----|-----9--------9----|-----9--------7----|
D|-------------------|-0-0----0-0-0------|-------------------|-0-0----0-0-0------|
A|-7-7----7-7-7------|-------------------|-7-7----7-7-7------|-------------------|
E|-------------------|-------------------|-------------------|-------------------|

                                          (Lead Solo 2)
G|-----9--------9----|-----9--------7----|-------------------|-------------------|
D|-------------------|-0-0----0-0-0------|-----2--------0----|-----2--------0----|
A|-7-7----7-7-7------|-------------------|-------------------|-------------------|
E|-------------------|-------------------|-0-0----0-0-0---0--|-2-2----2-2-2---2--|

G|-------------------|-------------------|-------------------|-------------------|
D|-----2--------0----|-----2--------5----|-----2--------0----|-----2--------0----|
A|-------------------|-0-0----0-0-0---0--|-------------------|-------------------|
E|-3-3----3-3-3---3--|-------------------|-0-0----0-0-0---0--|-2-2----2-2-2---2--|

G|-------------------|-------------------|-------------------|-------------------|
D|-----2--------0----|-----2--------5----|-----2--------0----|-----2--------0----|
A|-------------------|-0-0----0-0-0---0--|-------------------|-------------------|
E|-3-3----3-3-3---3--|-------------------|-0-0----0-0-0---0--|-2-2----2-2-2---2--|

G|-------------------|-------------------|-------------------|-------------------|
D|-----2--------0----|-----2--------5----|-----2--------0----|-----2--------0----|
A|-------------------|-0-0----0-0-0---0--|-------------------|-------------------|
E|-3-3----3-3-3---3--|-------------------|-0-0----0-0-0---0--|-2-2----2-2-2---2--|

                                           Why, why, why
G|-------------------|-------------------|-------------------|-------------------|
D|-----2--------0----|-----2--------5----|-----2--------0----|-----2--------0----|
A|-------------------|-0-0----0-0-0---0--|-------------------|-2-2----2-2-2---2--|
E|-3-3----3-3-3---3--|-------------------|-0-0----0-0-0---0--|-------------------|

G|-------------------|-------------------|-------------------|-------------------|
D|-----2--------0----|-----2--------5----|-----2--------0----|-----2--------0----|
A|-3-3----3-3-3---3--|-0-0----0-0-0---0--|-------------------|-2-2----2-2-2---2--|
E|-------------------|-------------------|-0-0----0-0-0---0--|-------------------|

G|-------------------|-------------------|-------------------|-------------------|
D|-----2--------0----|-----2--------5----|-----2--------0----|-----2--------0----|
A|-3-3----3-3-3---3--|-0-0----0-0-0---0--|-------------------|-2-2----2-2-2---2--|
E|-------------------|-------------------|-0-0----0-0-0---0--|-------------------|

                                       I wish I could just stop
G|-------------------|-------------------|-------------------|-------------------|
D|-----2--------0----|-----2--------5----|-----2--------0----|-----2--------0----|
A|-3-3----3-3-3---3--|-0-0----0-0-0---0--|-------------------|-2-2----2-2-2---2--|
E|-------------------|-------------------|-0-0----0-0-0---0--|-------------------|

G|-------------------|-------------------|-----4--------0----|-----4--------0----|
D|-----2--------0----|-----2--------5----|-------------------|-------------------|
A|-3-3----3-3-3---3--|-0-0----0-0-0---0--|-2-2----2-2-2---2--|-3-3----3-3-3---3--|
E|-------------------|-------------------|-------------------|-------------------|

G|-----4--------4----|-------------------|-----4--------0----|-----4--------0----|
D|-------------------|-----5--------5----|-------------------|-------------------|
A|-5-5----5-5-5---5--|-7-7----7-7-7---7--|-2-2----2-2-2---2--|-3-3----3-3-3---3--|
E|-------------------|-------------------|-------------------|-------------------|

                                               same old game    love in vain
G|-----4--------4----|-------------------|-----4--------0----|-----4--------0----|
D|-------------------|-----5--------5----|-------------------|-------------------|
A|-5-5----5-5-5---5--|-7-7----7-7-7---7--|-2-2----2-2-2---2--|-3-3----3-3-3---3--|
E|-------------------|-------------------|-------------------|-------------------|

                                               and miles      and miles away
G|-----4--------4----|-------------------|-----4--------0----|-----4--------0----|
D|-------------------|-----5--------5----|-------------------|-------------------|
A|-5-5----5-5-5---5--|-7-7----7-7-7---7--|-2-2----2-2-2---2--|-3-3----3-3-3---3--|
E|-------------------|-------------------|-------------------|-------------------|

  from home again     (Descending Slide)
G|-----4--------4----|-----4--------4----|-----4--------4----|-----4--------4----|
D|-------------------|-------------------|-------------------|-------------------|
A|-5-5----5-5-5---5--|-5-5----5-5-5---5--|-5-5----5-5-5---5--|-5-5----5-5-5---5--|
E|-------------------|-------------------|-------------------|-------------------|

  (Wahed Crescendo and Fade)
G|------------------|
D|------------------|
A|--5---------------|
E|------------------|

[End]


x    = dead note
/    = slide up
\    = slide dn
h    = hammer on
p    = pull off
~    = vibrato
b    = bend
br   = bend and release
pb   = pre bend
pbr  = pre bend and release


Notes:
1. 'From the Edge Of The Deep Green Sea' is very unstructured as a typical song.  It's 
played by The Cure as a sonic encounter and it builds and fades accordingly.
2. Consequently the verses are not annotated but the commencement of each is noted by 
the beginning lyrics.
3. The structural musical elements are in brackets thus ().

            
            
Suggest correction
Creating personal tab
Creating personal tab
You can edit any tab online and save it as your Personal.

You can edit, replace or remove any tab part or add personal notes – all changes will be seen only by you.

Personal tabs can be accessed anytime from any device, even offline.
Learn more »
comments
print report bad tab
guest
You may want to rate the tab now too:
select rating
Wanna post a correction for this tab? Suggest correction