Oops, an error
Loading. Please wait.

Halo bass

version 1
version 1

Whole song

Interactive

1,670 views 3 this week
2 commentsread comments
1 2 3 4 5
x 4
add to favorites
×
Save as Personal and add changes to this tab that will be seen only by you. Learn more ›
×
You can save this tab as Personal to edit and correct it or add notes. All changes will be seen only by you. Learn more »
launch autoscroll
font size
0
reset
guitar tuner
edit
Autoscroll
slow
fast
+/-
esc
set tempo
stop
Author
Difficulty
-----------------------------------------------------------------------------
			     The Cure - Halo
-----------------------------------------------------------------------------

Tabbed By : Extra Blood
e-mail: Lenda@ofir.dk

Tuning: E A D G

This song is pretty simple. You play the
1st riff through most of the song, so it
works likes a verse. And the 2nd riff works
like a chorus. That's it.

Please leave behind a rating and/or a comment.

Riff 1
G|-9-99-9--11-11-1111-|---------------|--------------------|
D|-0-00-0--0--0--0-0--|-9-99-9--11-11-|-14-12-14-12-14-12--|
A|--------------------|-0-00-0--0--0--|-0--0--0--0--0--0---|
E|--------------------|---------------|--------------------|

Riff 2
G|--9-99-9--11-11-1111-|---------------------|
D|*-0-00-0--0--0--0-0--|-9-99-9--11-11-1111-*|
A|*--------------------|-0-00-0--0--0--0-0--*|
E|---------------------|---------------------|

Suggest correction
Creating personal tab
Creating personal tab
You can edit any tab online and save it as your Personal.

You can edit, replace or remove any tab part or add personal notes – all changes will be seen only by you.

Personal tabs can be accessed anytime from any device, even offline.
Learn more »
comments
print report bad tab
2 comments total.
0 reply
bass$$man 10 Feb 07, 2008 04:46 AM

ok then you got it wrong

0 reply
MZARS 10 Mar 05, 2016 12:40 AM

Riff 1
G|-9-99-9--11-11-1111-|-0-00-0--0--0--|--------------------|
D|-0-00-0--0--0--0-0--|-9-99-9--12-12-|-14-12-14-12-14-12--|
A|--------------------|---------------|--------------------
E|--------------------|---------------|--------------------|

Riff 2
G|--9-99-9--11-11-1111-|-0-00-0--0--0--0-0---|
D|*-0-00-0--0--0--0-0--|-9-99-9--11-11-1111-*|
A|*--------------------|--------------------*|
E|---------------------|---------------------|

guest
You may want to rate the tab now too:
select rating
Wanna post a correction for this tab? Suggest correction