Oops, an error
Loading. Please wait.
We have an official Just Like Heaven tab made by UG professional guitarists. Check out the tab »
×
8,469 views 3 this week
2 commentsread comments
1 2 3 4 5
x 4
add to favorites
×
Save as Personal and add changes to this tab that will be seen only by you. Learn more ›
×
You can save this tab as Personal to edit and correct it or add notes. All changes will be seen only by you. Learn more »
launch autoscroll
font size
0
reset
how to read this tab
guitar tuner
backing track
0:00
0:00
edit
Autoscroll
slow
fast
+/-
esc
set tempo
stop
The Cure - Just Like Heaven
Transcribed by: Andrew Henderson


Intro (bass)x1

1st Guitar x1
E|--------------------------------------------------------------------------------------------|
B|--------------------------------------------------------------------------------------------|
G|--------------------------------------------------------------------------------------------|
D|--------------------------------------------------------------------------------------------|
A|--4---4---4--4--4--2-(2)--2-2---2--2--2--2---5---5---5--5--5----9---9----9--9----9---9---9--|
E|--5---5---5--5--5--4-(4)--4—4---4--4--4--4---7---7---7--7--7---10-(10)--10—10---10--10--10--|
    

Enter 2nd Guitar (x2) then solo
E|------------------------2-2-2-2-2--2-2-2-2-2---|
B|-------------0-0-0-0-0--3-3-3-3-3--3-3-3-3-3---|
G|--2-2-2-2-2--1-1-1-1-1--4-4-4-4-4--2-2-2-2-2---|
D|--2-2-2-2-2--2-2-2-2-2--4-4-4-4-4--0-0-0-0-0---|
A|--4-4-4-4-4--2-2-2-2-2--2-2-2-2-2--------------|
E|--5-5-5-5-5--0-0-0-0-0-------------------------|
Chords: A          E          Bm         D


Solo: A  E  Bm  D x4
E|--9-9-9------------------------------------------------------|
B|--------12----12-10-10-9-9-9---------------------------------|
G|-----------------------------11----11-9-7-7-6-7-6------------|
D|--------------------------------------------------9-9-7-7-9--|
A|-------------------------------------------------------------|
E|-------------------------------------------------------------|    X2


E|----------------------------------------------9-9-10-10-12-12-12-10-10-10-10-10--|
B|-----------------7-7-7---9-9-9-10-10-12-12-12------------------------------------|
G|-6---6-7-7-7-9-9-----------------------------------------------------------------|
D|---------------------------------------------------------------------------------|
A|---------------------------------------------------------------------------------|
E|---------------------------------------------------------------------------------|


E|--9-9-9------------------------------------------------------|
B|--------12----12-10-10-9-9-9---------------------------------|
G|-----------------------------11----11-9-7-7-6-7-6------------|
D|--------------------------------------------------9-9-7-7-9--|
A|-------------------------------------------------------------|
E|-------------------------------------------------------------|


[Verse 1]
A               E               Bm              D
"Show me how you do that trick, the one that makes me scream" she said
"The one that makes me laugh" she said And threw her arms around my neck
"Show me how you do it and I promise you I promise that
I'll run away with you, I'll run away with you"


[Instrumental – Intro Solo:- A  E  Bm  D x4]


[Verse 2]
                                                    E|-----------|
                                                    B|--7---7----|
                                                    G|---7---7-7-|
                                                    D|----7---7--|
                                                    A|-----------|
A               E               Bm               D  E|-----------|
Spinning on that dizzy edge I kissed her face and kissed her head
And dreamed of all the different ways I had to make her glow
"Why are you so far away?" she said "Why won't you ever know that I'm in 
love with you, That I'm in love with you"

[Chorus]
Fm          G
You....... Soft and Only
You....... Lost and Lonely
You....... Strange as angels
D
Dancing in the deepest oceans 
Twisting in the water You're just like a dream

[Instrumental Solo] - A  E  Bm  D x4

E|--/12-9--------------------9-----------|
B|--------10--10-12-12-10-12-------------|
G|------------------------------11-------|
D|---------------------------------------|
A|---------------------------------------|
E|---------------------------------------|

E|--/12-12-12-12-9------------------9--10-9-10-12-----|
B|----------------10-10-12-12-10-12---------------10--|
G|-------------------------------------------------|
D|-------------------------------------------------|
A|-------------------------------------------------|
E|-------------------------------------------------|

E|-----------------9----------------9-10-9-10-12-----|
B|--10-10-10-10-12---10-12-10-12-10--------------10--|
G|---------------------------------------------------|
D|---------------------------------------------------|
A|---------------------------------------------------|
E|---------------------------------------------------|

E|---------------------------------------------------|
B|--/15-14h15-14~\(10)-10~~--/15-14h15-14~\(10)-10~~-|
G|---------------------------------------------------|
D|---------------------------------------------------|
A|---------------------------------------------------|
E|---------------------------------------------------|

[Verse 3]
A               E               Bm              D
Daylight licked me into shape I must have been asleep for days
And moving lips to breathe her name I opened up my eyes
And found myself alone alone Alone above a raging sea
That stole the only girl I loved and drowned her deep inside of me
E|--9-9-9------------------------------------------------------|
B|--------12----12-10-10-9-9-9---------------------------------|
G|-----------------------------11----11-9-7-7-6-7-6------------|
D|--------------------------------------------------9-9-7-7-9--|
A|-------------------------------------------------------------|
E|-------------------------------------------------------------|    

[Outro Chorus]
Fm          G
You....... Soft and Only
You....... Lost and Lonely
You....... Just like heaven

D

            
            
Suggest correction
Creating personal tab
Creating personal tab
You can edit any tab online and save it as your Personal.

You can edit, replace or remove any tab part or add personal notes – all changes will be seen only by you.

Personal tabs can be accessed anytime from any device, even offline.
Learn more »
comments
print report bad tab
2 comments total.
0 reply
guitarman47 132 Aug 17, 2005 08:00 PM

kick ass job dude

0 reply
Cloak 66 Nov 26, 2005 02:23 AM

Er, well, it's not bad in general, but I think you got some things mixed up: You tabbed the B minor chord right, but named it B major.
Same goes for the F# minor chord in the chorus.

I don't know if the first guitar is right in the beginning, I usually play it like this, in the same rythm as the bass:
D|---------------------0-0-0-0-0-0-0-0-0-0-|
A|-0-0-0-0-0-2-2-2-2-2-2-2-2-2-2/9-9-9-9-9-|
E|-9-9-9-9-9/4-4-4-4-4---------------------|

and so on

The Piano solo is slightly wrong, too, some notes are wrong but I'm not in the mood to correct it now.

Well, not a bad job, however...

guest
You may want to rate the tab now too:
select rating
Wanna post a correction for this tab? Suggest correction