Oops, an error
Loading. Please wait.
We have an official Just Like Heaven tab made by UG professional guitarists. Check out the tab »
×
82,222 views 93 this week
2 commentsread comments
1 2 3 4 5
x 51
add to favorites
×
Save as Personal and add changes to this tab that will be seen only by you. Learn more ›
×
You can save this tab as Personal to edit and correct it or add notes. All changes will be seen only by you. Learn more »
launch autoscroll
font size
0
reset
how to read this tab
guitar tuner
backing track
0:00
0:00
edit
Autoscroll
slow
fast
+/-
esc
set tempo
stop
Author
Difficulty
Unregistered
intermediate
[Bass Intro]
G|---------------------------------------|
D|--------------------------0-0-0-0-0-0--|
A|--0-0-0-----------2-2-2-2--------------| 
E|--------0-0-0-0-0----------------------|    

[Intro]
e|-----------------------------------------------------|
B|-----------------------------------------------------|
G|-----------------------------------------------------|
D|-----------------------------------------------------|
A|----------------------/5-5-5-5--/-9-9-9-9-9-9--------|
E|--9-9-9-/(-4-4-4-4-4-)-or(-7-7-7-7-7-)---------------|

 then
 (acoustic guitar)
e|--0-0-0-0-0--0-0-0-0-0-0--2-2-2-2-2--2-2-2-2-2-2---|
B|--2-2-2-2-2--0-0-0-0-0-0--3-3-3-3-3--3-3-3-3-3-3---|
G|--2-2-2-2-2--1-1-1-1-1-1--4-4-4-4-4--2-2-2-2-2-2---|
D|--2-2-2-2-2--2-2-2-2-2-2--4-4-4-4-4--0-0-0-0-0-0---|
A|--0-0-0-0-0--2-2-2-2-2-2--2-2-2-2-2----------------|
E|-------------0-0-0-0-0-0---------------------------|

Keyboard.

[Instrumental]
e|--------------------------------|
B|--------------------------------|
G|-14--13-------------------------|
D|--------14--12--11-12......-----|
A|--------------------------------|
E|--------------------------------|

 ..play this during the bridge part
e|---------------4-5-7--------------4-5-7-10------------------------------|
B|----2-3-5------------5---2-3-5------------------------------------------|
G|----------2--------------------2----------------------------------------|
D|------------------------------------------------------------------------|
A|------------------------------------------------------------------------|
E|------------------------------------------------------------------------|

[Solo]
(verse chords in the background as well as keyboard)
e|-------------------------------------------------------------------------|
B|-------------------------------------------------------------------------|
G|--18-18-18-16-16-14------------------------------------------------------|
D|---------------------18-18-18-16-16-14--12-12-11-12----------------------|
A|----------------------------------------------------14--14-14-12-12-14---|
E|-------------------------------------------------------------------------|

e|--------------------------------------------------------------------------|
B|--------------------------------------------------------------------------|
G|--18-18-18-16-16-14-------------------------------------------------------|
D|---------------------18-18-18-16-16-14--12-12-11-12-----------------------|
A|----------------------------------------------------14--14-14-12-12-14----|
E|--------------------------------------------------------------------------|

e|--------------------------------------------------------------------------|
B|--------------------------------------------------------------------------|
G|-------------------------------------16-16-16-18-18-19--21-21-21-19-19-18-|
D|-------------------16-16-16-18-18-19--------------------------------------|
A|-16-16-16-17-17-19--------------------------------------------------------|
E|--------------------------------------------------------------------------|

e|--------------------------------------------------------------------------|
B|--------------------------------------------------------------------------|
G|-18-18-18-16-16-14--------------------------------------------------------|
D|--------------------18-18-18-16-16-14--12-12-11-12------------------------|
A|---------------------------------------------------14--14-14-12-12-14-----|
E|--------------------------------------------------------------------------|

[Verse]
   A                 E                 Bm                D 
e|-------------------------------------2-2-2-2--2-2-2----2--2-2-2-2-2-2-----|
B|-------------------------------------3-3-3-3--3-3-3----3--3-3-3-3-3-3-----|
G|-2-2-2-2--2-2-2----1--1-1-1-1-1-1----4-4-4-4--4-4-4----2--2-2-2-2-2-2-----|
D|-2-2-2-2--2-2-2----2--2-2-2-2-2-2----4-4-4-4--4-4-4----4--4-4-4-4-4-4-----|
A|-4-4-4-4--4-4-4----2--2-2-2-2-2-2----2-2-2-2--2-2-2----5--5-5-5-5-5-5-----|
E|-5-5-5-5--5-5-5-----------------------------------------------------------|

[Bridge]
    Fm         G

e|--2-2-2-2-2--3-3-3-3-3--|
B|--2-2-2-2-2--0-0-0-0-0--|
G|--2-2-2-2-2--0-0-0-0-0--|
D|--4-4-4-4-4--0-0-0-0-0--|
A|--4-4-4-4-4--2-2-2-2-2--|
E|--2-2-2-2-2--3-3-3-3-3--|
  "You........ Lost and Lonely"

 keyboard solo: 
 it may be an octave higher
e|------------------------------------------------------------------------|
B|--------------------------------------------------------------5---------|
G|-7-7-7-7-6-----4-4---4--6-------7-7-7-7-6-----4-4---4-6-7-6-7-----------|
D|-----------7-7-----7------4---------------7-7-----7-------------7-------|
A|------------------------------------------------------------------------|
E|------------------------------------------------------------------------|

e|-5-5-5-5-7-9--5-7--5-7--5-7~--------------------------------------------|
B|------------------------------------------------------------------------|
G|--------------------------------7-6-7-6----------7-6-7-6----------------|
D|----------------------------------------7-7--------------7-7------------|
A|------------------------------------------------------------------------|
E|------------------------------------------------------------------------|

(Chords and lyrics)

[Verse 1]
 A               E
"Show me how you do that trick
    Bmin              D
The one that makes me scream" she said
     A                 E
"The one that makes me laugh" she said
    Bmin            D
And threw her arms around my neck
 A               E
"Show me how you do it
      Bmin          D
And I promise you I promise that
           A                E
I'll run away with you
          Bmin              D
I'll run away with you"

[Instrumental] (x2)
A E Bmin D 

[Verse 2]
A                E 
Spinning on that dizzy edge
  Bmin                D
I kissed her face and kissed her head
    A                   E               Bmin
And dreamed of all the different ways I had
            D
To make her glow
A               E               Bmin
"Why are you so far away?" she said
               D                     A            E
"Why won't you ever know that I'm in love with you
            Bmin           D
That I'm in love with you"

[Chorus]
F#m
You
G
Soft and only
F#m
You
G
Lost and lonely
F#m
You
G
Strange as angels
D
Dancing in the deepest oceans
E
Twisting in the water
You're just like a dream

[Instrumental] (x2)
A E Bmin D

[Verse 3]
A                  E
Daylight licked me into shape
  Bmin             D
I must have been asleep for days
    A              E
And moving lips to breathe her name
  Bmin         D
I opened up my eyes
    A             E
And found myself alone alone
 Bmin         D
Alone above a raging sea
     A              E
That stole the only girl I loved
    Bmin               D
And drowned her deep inside of me

[Chorus]
F#m
You
G
Soft and only
F#m
You
G
Lost and lonely
F$m
You
G                   D (let ring)
Just like heaven


************************************

| /  Slide up
| ~  Vibrato

************************************
Suggest correction
Creating personal tab
Creating personal tab
You can edit any tab online and save it as your Personal.

You can edit, replace or remove any tab part or add personal notes – all changes will be seen only by you.

Personal tabs can be accessed anytime from any device, even offline.
Learn more »
comments
print report bad tab
2 comments total.
+1 reply
GirlsPLAYitBetR 70 Mar 28, 2006 11:48 AM

If you're going to use other people's work for your tab, you should give them credit.
I took the time to tab out that keyboard part and you took it as your own.

+1 reply
mccreadyisgod 10 Jun 27, 2006 09:04 PM

Yeah,I agree with you. If he she hadn't put that keyboard part up I would have given him a 5 star rating.

guest
Wanna post a correction for this tab? Suggest correction