Oops, an error
Loading. Please wait.
We have an official Just Like Heaven tab made by UG professional guitarists. Check out the tab »
×
128,036 views 33 this week
2 commentsread comments
1 2 3 4 5
x 11
add to favorites
×
Save as Personal and add changes to this tab that will be seen only by you. Learn more ›
×
You can save this tab as Personal to edit and correct it or add notes. All changes will be seen only by you. Learn more »
launch autoscroll
font size
0
reset
how to read this tab
guitar tuner
backing track
0:00
0:00
edit
Autoscroll
slow
fast
+/-
esc
set tempo
stop
Author
Difficulty
Hello, my name is John and if you want the correct way to play "Just Like Heaven" you 
try this tab.            /=slide
Artist: The Cure                            h=hammer
Song: Just Like Heaven
Tabber: John
Each Section is considered one measure
Intro: 8 measures


[Intro]
The drums will start the song with the bass folling right after:

Bass
|--------------------------------|
|--------------------------------|
|0-0-00----------2-2-22/5-5-5-5-5|(Repeat this for 8 measures)
|-------0-0-0-0-0----------------|

 Then the lead guitar will come in the second measure with:
 Lead Guitar
e|--------------------------------|
B|--------------------------------|
G|--------------------------------|(Repeat this for three measures)
D|--------------------------------|
A|4-4-4-4----------5-5-5-5/9-9-9-9|
E|-------4-4-4-4-4----------------|

 Then the rhythm guitar comes in the third measure
 Rhythm Guitar
e|------------------------|
B|2--------------3-------3|
G|2------1-------4-------2|(Repeat this for five measures-rhythm these
D|2------2-------4-------4| chords however you want)
A|-------2-------2-------5|
E|------------------------|

 There is also a synth/strings keyboard that comes in the fourth measure. The lead guitar 
 in again in the fifth measure:
 Lead guitar
e|-----------------------------------------|
B|141414-12-12-10--9-9-7-7-5-33-2h3-0-0---0|
G|-------------------------------------2-2-|(Repeat this 2 times)
D|-----------------------------------------|
A|-----------------------------------------|
E|-----------------------------------------|
-
|--------------------------------------------------------|
|2-2-3-3-5--7-7-9-9-10--12-12-14-14-15-15/17-17-15--15-15|
|--------------------------------------------------------|(Play this once)
|--------------------------------------------------------|
|--------------------------------------------------------|
|--------------------------------------------------------|
-
|------------------------------------------|
|141414-12-12-10--9-9-7-7-5-3-3-2h3-0-0---0|
|--------------------------------------2-2-|(Play this 1 more time to finish
|------------------------------------------| off the 8 measures)
|------------------------------------------|
|------------------------------------------|
____________________________________________________________________________


[Verse]

Bass
|--------------------------------|
|--------------------------------|
|0-0-00----------2-2-22/5-5-5-5-5|(Repeat this 4 times for the full verse)
|-------0-0-0-0-0----------------|

 Rhythm Guitar
e|------------------------|
B|2--------------3-------3|
G|2------1-------4-------2|(Repeat this 4 times for the full verse)
D|2------2-------4-------4|
A|-------2-------2-------5|
E|------------------------|

 Lead guitar
e|------------------------|
B|2-----------------------|
G|2------1-------4-------7|(Repeat this 4 times, but play different
D|2------2-------4-------7| from the rhythm guitar)
A|-------2-------2-------5|
E|------------------------|
____________________________________________________________________________


[Bridge]

Bass
|--------------------------------|
|--------------------------------|
|0-0-00----------2-2-22/5-5-5-5-5|(Repeat this for 2 times)
|-------0-0-0-0-0----------------|

 Rhythm Guitar
e|------------------------|
B|2--------------3-------3|
G|2------1-------4-------2|(Repeat this 2 times)
D|2------2-------4-------4|
A|-------2-------2-------5|
E|------------------------|

 Lead guitar
e|-----------------------------------------|
B|141414-12-12-10--9-9-7-7-5-33-2h3-0-0---0|
G|-------------------------------------2-2-|(Repeat this 2 times)
D|-----------------------------------------|
A|-----------------------------------------|
E|-----------------------------------------|
____________________________________________________________________________


[Verse]

Bass
|--------------------------------|
|--------------------------------|
|0-0-00----------2-2-22/5-5-5-5-5|(Repeat this 4 times for the full verse)
|-------0-0-0-0-0----------------|

 Rhythm Guitar
e|------------------------|
B|2--------------3-------3|
G|2------1-------4-------2|(Repeat this 4 times for the full verse)
D|2------2-------4-------4|
A|-------2-------2-------5|
E|------------------------|

 Lead guitar
e|------------------------|
B|2-----------------------|
G|2------1-------4-------7|(Repeat this 4 times, but play different
D|2------2-------4-------7| from the rhythm guitar)
A|-------2-------2-------5|
E|------------------------|
____________________________________________________________________________


[Chorus]

Bass
|--------------------------------------------------|
|--------------------------------------------------|(Pt.1)
|--------------------------------------------------|
|2-2-22-3-3-3-3-3-2-2-22-3-3-3-3-3-2-2-22-3-3-3-3-3|
-
|---------------------------------|
|---------------------------------|(Pt.2, play both once)
|5-5-55-5-5-5-5-5-5-5-55-5-5-5-5-5|
|---------------------------------|

 Rhythm Guitar
e|--------------------------------------------------|
B|--------------------------------------------------|
G|--------------------------------------------------|(Pt.1)
D|4-4-44-5-5-5-5-5-4-4-44-5-5-5-5-5-4-4-44-5-5-5-5-5|
A|4-4-44-5-5-5-5-5-4-4-44-5-5-5-5-5-4-4-44-5-5-5-5-5|
E|2-2-22-3-3-3-3-3-2-2-22-3-3-3-3-3-2-2-22-3-3-3-3-3|
-
|---------------------------------|
|---------------------------------|
|---------------------------------|(Pt.2, play both once)
|7-7-77-7-7-7-7-7-7-7-77-7-7-7-7-7|
|7-7-77-7-7-7-7-7-7-7-77-7-7-7-7-7|
|5-5-55-5-5-5-5-5-5-5-55-5-5-5-5-5|
|---------------------------------|

 Lead Guitar
e|-----0------0----0---------------|
B|----10-----10---10-12-----12---12|
G|----11-----11---11-12-----12---12|(Pt.1)
D|111111-111111-1111-12-121212 1212|
A|---------------------------------|
E|---------------------------------|
-
|10-----10------10--|
|10-----10------10--|
|11-11111111-11-1111|(Pt.2, play both once and play Pt.2 4 times)
|-------------------|
|-------------------|
|-------------------|
____________________________________________________________________________

[Solo]
The solo is originally with a piano-keyboard but I tabbed it to fit the guitar. Doesn't 
which guitar but I play the rhythm so I tabbed it for the rhythm guitar.
Bass
|--------------------------------|
|--------------------------------|
|0-0-00----------2-2-22/5-5-5-5-5|(Repeat this 4 times for the full solo)
|-------0-0-0-0-0----------------|

 Rhythm Guitar
e|5-5-7-7-57-9--------5--5-5-7-7-57-9--109-10--12--------------9|
B|----------------5555---------------------------10--101010-12--|
G|-------------7------------------------------------------------|
D|--------------------------------------------------------------|
A|--------------------------------------------------------------|
E|--------------------------------------------------------------|
-continued
|------------------------------------------------------------------|
|1012-1012-1012--109109--------------------------------------------|
|-----------------------10-10/12-12-10--9-9-7-7-5--3-3-2h3-0-0----0|
|--------------------------------------------------------------2-2-|
|------------------------------------------------------------------|
|------------------------------------------------------------------|

 Lead Guitar
 Lead guitar
e|------------------------|
B|2-----------------------|
G|2------1-------4-------7|(Repeat this 4 times-play exactly like verse#1
D|2------2-------4-------7| and verse#2)
A|-------2-------2-------5|
E|------------------------|
____________________________________________________________________________


[Verse]

Bass
|--------------------------------|
|--------------------------------|
|0-0-00----------2-2-22/5-5-5-5-5|(Repeat this 4 times for the full verse)
|-------0-0-0-0-0----------------|

 Rhythm Guitar
e|------------------------|
B|2--------------3-------3|
G|2------1-------4-------2|(Repeat this 4 times for the full verse)
D|2------2-------4-------4|
A|-------2-------2-------5|
E|------------------------|

 Lead guitar
e|------------------------|
B|2-----------------------|
G|2------1-------4-------7|(Repeat this 4 times, but play different
D|2------2-------4-------7| from the rhythm guitar)
A|-------2-------2-------5|
E|------------------------|
____________________________________________________________________________


[Chorus]

Bass
|--------------------------------------------------|
|--------------------------------------------------|(Pt.1)
|--------------------------------------------------|
|2-2-22-3-3-3-3-3-2-2-22-3-3-3-3-3-2-2-22-3-3-3-3-3|
-
|-|
|-|
|5|
|-|


 Rhythm Guitar
e|--------------------------------------------------|
B|--------------------------------------------------|
G|--------------------------------------------------|(Pt.1)
D|4-4-44-5-5-5-5-5-4-4-44-5-5-5-5-5-4-4-44-5-5-5-5-5|
A|4-4-44-5-5-5-5-5-4-4-44-5-5-5-5-5-4-4-44-5-5-5-5-5|
E|2-2-22-3-3-3-3-3-2-2-22-3-3-3-3-3-2-2-22-3-3-3-3-3|
-
|-|
|-|
|-|(End with this)
|7|
|7|
|5|
|-|

 Lead Guitar
e|-----0------0----0---------------|
B|----10-----10---10-12-----12---12|
G|----11-----11---11-12-----12---12|(Pt.1)
D|111111-111111-1111-12-121212 1212|
A|---------------------------------|
E|---------------------------------|
-
|10|
|10|
|11|(End with this)
|--|
|--|
|--|
____________________________________________________________________________

If there is any questions or concerns my Myspace email adress is
Interpol-Foofighters@hotmail.com
Add me if you want.



************************************

| h  Hammer-on
| /  Slide up

************************************

            
            
Suggest correction
Creating personal tab
Creating personal tab
You can edit any tab online and save it as your Personal.

You can edit, replace or remove any tab part or add personal notes – all changes will be seen only by you.

Personal tabs can be accessed anytime from any device, even offline.
Learn more »
comments
print report bad tab
2 comments total.
0 reply
ViciousSid 10 Aug 26, 2011 05:11 PM

nice tab. i have one question though, it seems like one part is missing or that its a bit empty, im playing lead guitar on this version. is it because the rhythem is taking up alot of the song? im not sure probably an obvious question but everything else seems rite. if you get this you can just write it on my profile.

0 reply
hacheta 10 Nov 07, 2012 06:24 PM

COMPLETE TAB?!? Thank You so much... I was about to cover this song with StudioOne and the Rythm was all I knew... I wish more people made tabs the way you make them. Then I wouldn't need 3-4 internet tabs open at once. =P I wish there was a tip Jar on this website man! I'd TOTALLY toss ya a 5 dollar bill man! Make us some more tabs bud! =D

guest
You may want to rate the tab now too:
select rating
Wanna post a correction for this tab? Suggest correction