Oops, an error
Loading. Please wait.

Lost Tab

version 1
version 1

Whole song

3,880 views 9 this week
4 commentsread comments
1 2 3 4 5
x 3
add to favorites
launch autoscroll
font size
0
reset
how to read this tab
guitar tuner
×
Best way to learn
"Lost"
Autoscroll
slow
fast
+/-
esc
set tempo
stop
Author
Band:cure
song:Lost
Album:The cure(self titled


All the other tabs are not correct the catual song is played in drop D.

E-----------------------------------------------------------------------|
B-----------------------------------------------------------------------|
G-----------------------------------------------------------------------|
D--55555555--0000--2222-------------------------------------------------|
A--55555555--0000--2222-------------------------------------------------|
D--55555555--0000--2222-------------------------------------------------|


Thats it enjoy!if you have any comments or suggestions e-mail me at Littleteapot317@aol.com
Suggest correction
Give kudos to tab author, rate the tab!
1 2 3 4 5
comments
print report bad tab
4 comments total. Showing first comments.
0 reply
you_are_a_noise 10 Oct 28, 2007 10:08 AM

this probably is the right way. good post

0 reply
mikesauce 72 Jun 12, 2012 05:07 PM

I think the first chord may be a bit different...

D--5--
A--4--
D--5--

a bit more haunting

0 reply
lucaspazio 10 May 28, 2014 04:54 PM

for this tuning (DADGBE) I do

4--4----4----2----
4--4----4----2----
5--5----0----2----

if tuned a whole step down (not dropped):

C:-6-6-6-6-6-6-6-6-6-6-6-6-4-4-4-4-
G:-6-6-6-6-6-6-6-6-6-6-6-6-4-4-4-4-
D:-5-5-5-5-5-5-5-5-0-0-0-0-2-2-2-2-

guest
You may want to rate the tab now too:
select rating
Wanna post a correction for this tab? Suggest correction