Oops, an error
Loading. Please wait.

Lovecats Chords

version 1
version 1

Whole song

Interactive

90,063 views 267 this week
3 commentsread comments
1 2 3 4 5
accurate
x 22
add to favorites
launch autoscroll
font size
0
reset
transpose
0
reset
display chords
guitar tuner
Tab Pro tools
  • play this tab
  • loop segment
  • change instrument
  • show fretboard
  • metronome
×
Best way to learn
"Lovecats"
Autoscroll
slow
fast
+/-
esc
set tempo
stop
Contributor
Difficulty
novice
-------------------------------------------------------------------------------
                             The Lovecats - The Cure
-------------------------------------------------------------------------------
Tabbed by: Gallagher2006

Tuning: Standard

I just noticed on this site there isn’t actually a full chords version of
“The Lovecats”, so I tabbed this out real quick ;)


Am                    G
We move like cajun tigers 
F                                    G
We couldn't get closer than this 
Am              
The way we walk 
G               
The way we talk 
F
The way we stalk 
G
The way we kiss 

Am                         
We slip through the streets 
G
While everyone sleeps 
F
Getting bigger and sleeker 
G
And wider and brighter 
A                                      G
We bite and scratch and scream all night let's go and 
  F                            G
Throw all the songs we know 

C
Into the sea you and me 
              Dm
All these years and no one heard 
C
I'll show you in spring it's a treacherous thing 
     Dm
We missed you hissed the lovecats 

Am, G, F, G throughout all the “Bah, bah...”

Same chords as above verse

We're so wonderfully wonderfully wonderfully 
Wonderfully pretty 
Oh you know that I'd do anything for you 
We should have each other to tea huh? 
We should have each other with cream 
Then curl up by the fire 
And sleep for awhile 
It's the grooviest thing 
It's the perfect dream 


C
Into the sea you and me 
              Dm
All these years and no one heard 
C
I'll show you in spring it's a treacherous thing 
     Dm
We missed you hissed the lovecats 
Am

Am, G, F, G throughout all the “Bah, bah...” again

We're so wonderfully wonderfully wonderfully 
Wonderfully pretty 
Oh you know that I'd do anything for you 
We should have each other for dinner
We should have each other with cream 
Then curl up by the fire 
And sleep for awhile 
It's the grooviest thing 
It's the perfect dream

Em
Hand in hand is the only way to land 
        F
And always the right way round 
Em
Not broken in pieces like hated little meeces 
F
How could we miss 
                                Am
Someone as dumb as this 

After this, go to the “Bah, bah..>” bit again and then just scat sing the lyrics over
the same progression

Riff - 

e|-------------0-1-0-----3-1--0----------------0--|
B|-----0-1--3--------0----------1--3---1----3-----|
G|--2---------------------------------------------|
D|------------------------------------------------|
A|------------------------------------------------|
E|------------------------------------------------|

comments
print report bad tab
3 comments total.
+5 reply
TheActor wrote on June 28 2008, 03:26 am

The riff that you have written:

e|-------------0-1-0-----3-1--0----------------0--|
B|-----0-1--3--------0----------1--3---1----3-----|
G|--2---------------------------------------------|
D|------------------------------------------------|
A|------------------------------------------------|
E|------------------------------------------------|

I think that after the 0 1 0 on the E string, it should be a 1 on B, not open.

e|-------------0-1-0-----3-1--0----------------0--|
B|-----0-1--3--------1----------1--3---1----3-----|
G|--2---------------------------------------------|
D|------------------------------------------------|
A|------------------------------------------------|
E|------------------------------------------------|

0 reply
Lothion wrote on September 2 2009, 05:23 am

yep. fairly shit tabbing all up, buddy.

+1 reply
jacopo.roccabru wrote on April 3 2013, 05:53 am

I agree whit TheActor, but there is more. I think the riff shoud end like that:

e|-------------0-1-0-----3-1--0----------------0--|
B|-----0-1--3--------1----------1--3---1----3-----|
G|--2---------------------------------------------|
D|------------------------------------------------|
A|------------------------------------------------|
E|------------------------------------------------|

e|-------------0-1-0-----3-1--0-------------------|
B|-----0-1--3--------1----------3--1---0----------|
G|--2--------------------------------------2---0--|
D|------------------------------------------------|
A|------------------------------------------------|
E|------------------------------------------------|

I want to post or [tab]
guest
You may want to rate the tab now too:
select rating
Please do not post tabs as comments. Select "correction" instead!