Oops, an error
Loading. Please wait.

Lovecats Bass

version 3
version 3

Whole song

Interactive

55,618 views 60 this week
4 commentsread comments
1 2 3 4 5
x 51
add to favorites
launch autoscroll
font size
0
reset
guitar tuner
backing track
0:00
0:00
×
Best way to learn
"Lovecats"
Autoscroll
slow
fast
+/-
esc
set tempo
stop
The Cure - The Lovecats


[Intro]

G|-----|----------|----------|----------|----------|
D|-----|----------|----------|----------|----------|
A|-----|----------|----------|----------|----------|
E|-0-3-|-5----0-3-|-1----0-3-|-5----0-3-|-1----0-3-|


[Part A]

G|------------------|----------------|
D|------------------|----------------|
A|----7--5--3-------|----5--3--2-----|
E|-5------------0-3-|-1----------0-3-|(x6)


[Chorus]

G|---------------|----------------|
D|-----------5---|-----------10\--|
A|-3--5--7-----3-|-5--7--8--------|
E|---------------|----------------|(x2)


[Part A]

G|------------------|----------------|
D|------------------|----------------|
A|----7--5--3-------|----5--3--2-----|
E|-5------------0-3-|-1----------0-3-|(x6)


[Chorus]

G|---------------|----------------|
D|-----------5---|-----------10\--|
A|-3--5--7-----3-|-5--7--8--------|
E|---------------|----------------|(x2)


[Part B]

G|---------------|----------------|
D|-----------9\--|-----------10\--|
A|-0------6~-----|--------7~------|
E|---------------|-1--------------|(x4)


[Part A]

G|------------------|----------------|
D|------------------|----------------|
A|----7--5--3-------|----5--3--2-----|
E|-5------------0-3-|-1----------0-3-|(x4)


[Part C]

G|-------------|--------------|-------------|-------------|
D|------5------|------7-------|------5------|-------10----|
A|----7---7----|----8----8----|----7---7----|----8------8-|
E|-0---------3-|-1----------1-|-0---------3-|-1-----------|


[Part B]

G|---------------|----------------|
D|-----------9\--|-----------10\--|
A|-0------6~-----|--------7~------|
E|---------------|-1--------------|(x2)


[Part A]

G|------------------|----------------|
D|------------------|----------------|
A|----7--5--3-------|----5--3--2-----|
E|-5------------0-3-|-1----------0-3-|(x2)


[Part D]

G|-------------------|-------------------|
D|-------------------|-------------------|
A|--------5-7-8-7----|--------2-3-2------|
E|-5-7-8----------8--|-1-3-5--------5-3--|(x2)


[Part A]

G|------------------|----------------|
D|------------------|----------------|
A|----7--5--3-------|----5--3--2-----|
E|-5------------0-3-|-1----------0-3-|(x3)

G|------------------|----------------|
D|------------------|----------------|
A|----7--8--7-------|----5--3--2-----|
E|-5------------0-3-|-1----------0-3-|

G|------------------|
D|------------------|
A|------------------|
E|-0----------------|

G|------------------|
D|------------------|
A|------------------|
E|-5/17-------------|



************************************

| \  Slide down
| ~  Vibrato
| /  Slide up

************************************
Suggest correction
comments
print report bad tab
4 comments total. Showing first comments.
+3 reply
theCureis100yrs 10 Jul 22, 2008 11:48 PM

Really Good tab. Written well, easy to follow, and sounds accurate.

Thanks.

+5 reply
jason_hilton 102 Jul 05, 2011 12:39 PM

Great stuff.
Anyone who thinks this isn't the most fun to play on the bass probably isn't a real person.

0 reply
stephentshort 10 Feb 18, 2014 09:41 AM

i love playing this song flows together so well

guest
You may want to rate the tab now too:
select rating
Wanna post a correction for this tab? Suggest correction