Oops, an error
Loading. Please wait.

Lovecats bass

version 4
version 4

Whole song

Interactive

1,396 views 1 this week
no commentswrite comment
1 2 3 4 5
1 last vote to show rating
add to favorites
×
Save as Personal and add changes to this tab that will be seen only by you. Learn more ›
×
You can save this tab as Personal to edit and correct it or add notes. All changes will be seen only by you. Learn more »
launch autoscroll
font size
0
reset
guitar tuner
backing track
0:00
0:00
edit
Autoscroll
slow
fast
+/-
esc
set tempo
stop
Author
Difficulty
Here's my tab to The Lovecats by The Cure, it's more or less 100% correct, any
mistakes you find? Email me @ nesse96@hotmail.com :) Cheers x

Also;
/ - Slide to.


INTRO:

G -----------------|
D -----------------|
A ------------0----|
E -0-3-5-------3-1-| X2

Verse:
G -----------------------------|
D -----------------------------|
A ---------7-5-3-0------5-3-2--|
E -0-3-5-----------3-1---------| X7

Pre-Chorus:

G ----------------------------------|
D --------5--------------10---------|
A -3-5-7-----7-5-7--3/8------8------|
E ----------------------------------| X3

VERSE X5

PRE-CHORUS X2

Break:

G ----------------------|
D -----9----------10----|
A -O/7---7---0/8-----8--|
E ---------1------------| X5

VERSE X6 (Some changes here but they're non-audible to me and I can't figure them out, 
playing this works though even if it's not perfect)

BREAK X2

VERSE X3

SOLO:

G --------------------------------------|
D -------0-2-3-2------------------------|
A -0-2-3---------3--------0-2-3-2-0-----|
E -----------------1--3--------------3--| X2

VERSE X 4

And that's all there is to it, enjoy playing :D

            
            
Suggest correction
Creating personal tab
Creating personal tab
You can edit any tab online and save it as your Personal.

You can edit, replace or remove any tab part or add personal notes – all changes will be seen only by you.

Personal tabs can be accessed anytime from any device, even offline.
Learn more »
Give kudos to tab author, rate the tab!
1 2 3 4 5
comments
print report bad tab
guest
You may want to rate the tab now too:
select rating
Wanna post a correction for this tab? Suggest correction