Oops, an error
Loading. Please wait.

Lovesong Tab

version 1
version 1
65,789 views 78 this week
1 commentread comment
1 2 3 4 5
x 29
add to favorites
launch autoscroll
font size
0
reset
how to read this tab
guitar tuner
×
Best way to learn
"Lovesong"
Autoscroll
slow
fast
+/-
esc
set tempo
stop
[Guitar Riff]
e|--7---------------0------0--0--0------0----0------0--0--0------0---------|
B|--5---------------1/(3)--5--3--5\(3)--1----1/(3)--5--3--5\(3)--1---------|
G|--5-------------2------------------------2-------------------------------|
D|--7----------------------------------------------------------------------|
A|-------------------------------------------------------------------------|
E|-------------------------------------------------------------------------|

[Solo]
e|--7-7-7-7---------7------7-7-7-7--------7-8/(10)-10-10--------------------|
B|----------8---------8------------8----------------------8-8-8-8--8/(10)-10|
G|----------------5---------------------5-----------------------------------|
D|--------------------------------------------------------------------------|
A|--------------------------------------------------------------------------|
E|--------------------------------------------------------------------------|

e|-------------------------------------------------------------------------|
B|--10--(3)b4r3-1-3--5-3--1-1-1-1-1-1-0------------------------------------|
G|--------------------------------------0-2-0-2----------------------------|
D|-------------------------------------------------------------------------|
A|-------------------------------------------------------------------------|
E|-------------------------------------------------------------------------|

[Verse 1]
Am       G              F    Em
Whenever I'm alone with you
Am          G              F           Em
You make me feel like I am home again
Am       G              F    Em
Whenever I'm alone with you
Am          G              F            Em
You make me feel like I am whole again

[Verse 2]
Whenever I'm alone with you
You make me feel like I am young again
Whenever I'm alone with you
You make me feel like I am fun again

[Chorus]
F       G        Am     C
However far away I will always love you
F       G           Am     C
However long I stay I will always love you
F        G           Am     C
Whatever words I say I will always love you
F      G
I will always love you

[Verse 3]
Whenever I'm alone with you
You make me feel like I am free again
Whenever I'm alone with you
You make me feel like I am clean again

[Chorus]
F       G        Am     C
However far away I will always love you
F       G           Am     C
However long I stay I will always love you
F        G           Am     C
Whatever words I say I will always love you
F      G
I will always love you


************************************

| r  Release

************************************
Suggest correction
comments
print report bad tab
1 comment total.
0 reply
simplyarianna 21 Mar 31, 2013 09:00 PM

pretty good tab. the only thing is, on the solo, instead of hitting that 5 before the 7, its an extra 7. like this :)

e|--7-7-7-7------7--7------7-7-7-7-----7--7-8/(10)-10-10--------------------
B|----------8---------8------------8----------------------8-8-8-8--8/(10)-10
G|------------------------------------------------------------------------
D|--------------------------------------------------------------------------
A|--------------------------------------------------------------------------
E|--------------------------------------------------------------------------

guest
You may want to rate the tab now too:
select rating
Wanna post a correction for this tab? Suggest correction