Oops, an error
Loading. Please wait.

Lullaby bass

version 1
version 1

Whole song

30,282 views 96 this week
2 commentsread comments
1 2 3 4 5
x 24
add to favorites
×
Save as Personal and add changes to this tab that will be seen only by you. Learn more ›
×
You can save this tab as Personal to edit and correct it or add notes. All changes will be seen only by you. Learn more »
launch autoscroll
font size
0
reset
guitar tuner
backing track
0:00
0:00
edit
Autoscroll
slow
fast
+/-
esc
set tempo
stop
Author
Difficulty
The Cure -LULLABY

Taken from the Elektra album Disintegration (1989)
Transcribed by: Damian Pamminger (TwitcheD_85@hotmail.com)
Standard tuning: E A D G

 [Fill]
G|------|
D|------|
A|-14-\-|
E|------|

 [Fig. 1]
G|---------------------------------------------------------------------------------|
D|----------------------------------6-6--------------------------------------------|
A|-4-4---2-/4-4-4-----4---2-/4-4-4------------------------------------------2-2----|
E|----------------------------------------5---4-/5-5-5-----5-5---4-/5-5-5----------|

 [Fig. 2]
G|-------------------------------------------------------------------------------|
D|-------------------------------------------------------------------------------|
A|-------------------------------------------------------------------------2-2---|
E|-2---0-2-2-2-----2-2---0-2-2-2---4---5---4-/5-5-5-----5-5---4-/5-5-5-----------|

 [End]
G|-----------------------------------------------------------------------------| |-----|
D|----------------------------------6-6----------------------------------------| |-----|
A|-4-4---2-/4-4-4-----4---2-/4-4-4----------------------------------------2----| |-4-4-|
E|----------------------------------------5---4-/5-5-5-----5---4-/5-5-5--------| |-----|


************************************

| \  Slide down
| /  Slide up

************************************
Suggest correction
Creating personal tab
Creating personal tab
You can edit any tab online and save it as your Personal.

You can edit, replace or remove any tab part or add personal notes – all changes will be seen only by you.

Personal tabs can be accessed anytime from any device, even offline.
Learn more »
comments
print report bad tab
2 comments total.
0 reply
Slip_It_Back 10 Sep 23, 2007 01:10 AM

Sweet Tab mate

0 reply
Jasper7979 51 Oct 04, 2007 09:44 AM

Thank you, Nice 2 Play

guest
You may want to rate the tab now too:
select rating
Wanna post a correction for this tab? Suggest correction