Oops, an error
Loading. Please wait.

Lullaby intro tab

version 3
version 3

Intro

  • This intro tab haven't been accepted before but i ... Show more

Whole song

712 views 1 this week
1 commentread comment
1 2 3 4 5
2 more votes to show rating
add to favorites
×
Save as Personal and add changes to this tab that will be seen only by you. Learn more ›
×
You can save this tab as Personal to edit and correct it or add notes. All changes will be seen only by you. Learn more »
launch autoscroll
font size
0
reset
how to read this tab
guitar tuner
backing track
0:00
0:00
edit
Autoscroll
slow
fast
+/-
esc
set tempo
stop
About this tab version
This intro tab haven't been accepted before but i think it should be reconsidered because, besides it sounds very accurate (as many others aren't), it shows there's no need for 2 guitars to play this beautiful intro. Was this info helpful? Yes No
-------------------------------------------------------------------------------
                             LULLABY - Cure
-------------------------------------------------------------------------------
Tabbed by: Daniel Bacellar
E-mail: dbacellar.vet@gmail.com

Here is the way to play this beautiful intro accurately with no need for 2 guitars ;)


e|-----4-----------4--------4-----------0--0--2--2--4--------0--0--2--2--4--------------|
B|-----0-----------0--------0-----------0-----------0--2-----0-----------0--2-----2--0--|
G|-----4--4--6--6--4--6-----4--4--6--6--4-----------4--------4-----------4--------4-----|
D|--------------------------------------------------------------------------------------|
A|--4--------4-----------4--------4-----------0-----------0--------0-----------0--------|
E|--------------------------------------------------------------------------------------|

and repeat...

************************************

| /   slide up
| \   slide down
| h   hammer-on
| p   pull-off
| ~   vibrato
| +   harmonic
| x   Mute note
| b   Bend
| pb  Pre-bend
| br  Bend release
| pbr Pre-bend release
| brb Bend release bend

************************************

            
            
Suggest correction
Creating personal tab
Creating personal tab
You can edit any tab online and save it as your Personal.

You can edit, replace or remove any tab part or add personal notes – all changes will be seen only by you.

Personal tabs can be accessed anytime from any device, even offline.
Learn more »
Give kudos to tab author, rate the tab!
1 2 3 4 5
comments
print report bad tab
1 comment total.
0 reply
chalkie.talkie 10 Jun 25, 2017 05:12 AM

Thanks for this - have played it over and over to get the fingers working smoothly on this one, and it sure feels satisfying when it all comes together! Mesmerising stuff!

guest
You may want to rate the tab now too:
select rating
Wanna post a correction for this tab? Suggest correction