Oops, an error
Loading. Please wait.

Mint Car Tab

version 2
version 2

Whole song

Interactive

3,242 views 10 this week
1 commentread comment
1 2 3 4 5
excellent!
x 3
add to favorites
launch autoscroll
font size
0
reset
how to read this tab
guitar tuner
Tab Pro tools
  • play this tab
  • loop segment
  • change instrument
  • show fretboard
  • metronome
×
Best way to learn
"Mint Car"
Autoscroll
slow
fast
+/-
esc
set tempo
stop
Contributor
Difficulty
intermediate
-----------------------------------------------------------------------------
                            The Cure - Mint Car
-----------------------------------------------------------------------------
Tabbed by:Metalcoreking
Email:Matthessell@live.com

Tuning:EADGBE

INTRO
E|---------------------15-14--------------------------------------------(x2)|
B|------15----15----15-------15\------15----15----15----15------------------|
G|-7/14----14----14---------------/14----14----14----14----14\--------------|
D|--------------------------------------------------------------------------|
A|--------------------------------------------------------------------------|
E|--------------------------------------------------------------------------|

VERSE
E|-5-5-5-0--0--0-0-0-0-0-0--0-0-0-0-0-0--0-0-0-0-0-0-0-0----------------(x2)|
B|-7-7-7-7--3--3-3-3-3-0-2--3-3-3-3-3-0--5-5-5-5-5-5-5-5--------------------|
G|-7-7-7-7--0--0-0-0-0-0-0--0-0-0-0-0-0--0-0-0-0-0-0-0-0--------------------|
D|-0-0-0-0--0--0-0-0-0-0-0--0-0-0-0-0-0--5-5-5-5-7-7-7-7--------------------|
A|----------2--2-2-2-2-2-2--2-2-2-2-2-2--0-0-0-0-0-0-0-0--------------------|
E|--------------------------------------------------------------------------|

SOLO I
E|--------------------------------------------------------------------------|
B|--------------------------------------------------------------------------|
G|-----------------------------14b--12--11-12-11b-------------14-12-11-12b--|
D|-----------------12----12-14---------------------12--12-14----------------|
A|-12-12-12-12--14----14----------------------------------------------------|
E|--------------------------------------------------------------------------|
 |                                                                          |
E|--------------------------------------------------------------------------|
B|-15--15-14--------15-15-15-14---------------------------------------------|
G|-----------14-----------------14------------------------------------------|
D|--------------12b----------------12b--------------------------------------|
A|--------------------------------------------------------------------------|
E|--------------------------------------------------------------------------|
 |                                                                          |
E|--------------------------------------------------------------------------|
B|--------------------------------------------------------------------------|
G|--------------------------14-14-------------------------------------------|
D|-12-12-14-12-14-12--14/16-------------------------------------------------|
A|--------------------------------14\12-14-12\------------------------------|
E|--------------------------------------------------------------------------|

VERSE

BRIDGE
E|-0-0-0-0-0-0--0-0-0-0-0-0--0-0-0-0-0-0--0-0-0-0-0-0-----------------------|
B|-2-2-2-2-2-2--3-3-3-3-3-3--2-2-2-2-2-2--3-3-3-3-3-3-----------------------|
G|-0-0-0-0-0-0--0-0-0-0-0-0--0-0-0-0-0-0--0-0-0-0-0-0-----------------------|
D|-2-2-2-2-2-2--0-0-0-0-0-0--2-2-2-2-2-2--4-4-4-4-4-4-----------------------|
A|-0-0-0-0-0-0--2-2-2-2-2-2--0-0-0-0-0-0--2-2-2-2-2-2-----------------------|
E|--------------------------------------------------------------------------|
 |                                                                          |
E|-0-0-0-0-0-0--0-0-0-0-0-0-------------------------------------------------|
B|-2-2-2-2-2-2--3-3-3-3-3-3-------------------------------------------------|
G|-0-0-0-0-0-0--0-0-0-0-0-0-------------------------------------------------|
D|-2-2-2-2-2-2--0-0-0-0-0-0-------------------------------------------------|
A|-0-0-0-0-0-0--2-2-2-2-2-2-------------------------------------------------|
E|--------------------------------------------------------------------------|

SOLO II
E|--------------------------------------------------------------------------|
B|--------------------------------------------------------------15-14-------|
G|-------------14----------------------------14-------------14--------14----|
D|-14/16\14/16----14/16\14/16----14/16\14/16----14/16\14/16--------------16-|
A|----------------------------14--------------------------------------------|
E|--------------------------------------------------------------------------|
 |                                                                          |
E|--------------------------------------------------------------------------|
B|--------------------------------------------------------------------------|
G|-------------14----------------------------14-------------14--------------|
D|-14/16\14/16----14/16\14/16----14/16\14/16----14/16\14/16-----------------|
A|----------------------------14--------------------------------------------|
E|--------------------------------------------------------------------------|
 |                                                                          |
E|-----------------14--14--14--12-15--14------------------------------------|
B|----------17--17-----15--15--14-15--15--15-151515-------------------------|
G|-16-14-14-----------------------------------------16-16-16-14-141414-12-11|
D|--------------------------------------------------------------------------|
A|--------------------------------------------------------------------------|
E|--------------------------------------------------------------------------|
 |                                                                          |
E|--------------------------------------------------------------------------|
B|----10----------------17-17-17-15-14-15-14----------------10--------------|
G|-12----------------------------------------14-12-12-11-12-----------------|
D|-------12-12-14-14/16-----------------------------------------------------|
A|--------------------------------------------------------------------------|
E|--------------------------------------------------------------------------|
 |                                                                          |
E|--------------------------------------------------------------------------|
B|--------------------------------------------------------------------------|
G|--------------------------------------------------------------------------|
D|-12-12-12-12-14-12-14-12-14/16--------------------------------------------|
A|--------------------------------------------------------------------------|
E|--------------------------------------------------------------------------|

VERSE

BREAKDOWN
E|-0-0-0-0-0-0--0-0-0-0-0-0--0-0-0-0-0-0--0-0-0-0-0-0-----------------------|
B|-0-0-0-0-0-0--0-0-0-0-0-0--0-0-0-0-0-0--0-0-0-0-0-0-----------------------|
G|-0-0-0-0-0-0--2-2-2-2-2-2--0-0-0-0-0-0--2-2-2-2-2-2-----------------------|
D|-2-2-0-0-0-0--2-2-0-0-0-0--0-0-0-0-0-0--2-2-0-0-0-0-----------------------|
A|-2-2-2-2-2-2--0-0-0-0-0-0--2-2-2-2-2-2--0-0-0-0-0-0-----------------------|
E|-0-0-0-0-0-0--2-2-2-2-2-2--3-3-3-3-3-3--2-2-2-2-2-2-----------------------|
 |                                                                          |
E|-0-0-0-0-0-0--0-0-0-0-0-0--0-0-0-0-0-0--0-0-0-0-0-0-----------------------|
B|-0-0-0-0-0-0--0-0-0-0-0-0--0-0-0-0-0-0--2-2-3-3-3-3-----------------------|
G|-0-0-0-0-0-0--2-2-2-2-2-2--0-0-0-0-0-0--0-0-0-0-0-0-----------------------|
D|-2-2-0-0-0-0--2-2-0-0-0-0--0-0-0-0-0-0--2-2-0-0-0-0-----------------------|
A|-2-2-2-2-2-2--0-0-0-0-0-0--2-2-2-2-2-2--0-0-0-0-0-0-----------------------|
E|-0-0-0-0-0-0--2-2-2-2-2-2--3-3-3-3-3-3------------------------------------|

VERSE (x3)

OUTRO
E|-5-5-5-0--0--0-0-0-0-0-0--0-0-0-0-0-0--0-0-0-0----------------------------|
B|-7-7-7-7--3--3-3-3-3-0-2--3-3-3-3-3-0--2-2-2-2----------------------------|
G|-7-7-7-7--0--0-0-0-0-0-0--0-0-0-0-0-0--0-0-0-0----------------------------|
D|-0-0-0-0--0--0-0-0-0-0-0--0-0-0-0-0-0--2-2-2-2----------------------------|
A|----------2--2-2-2-2-2-2--2-2-2-2-2-2--0-0-0-0----------------------------|
E|--------------------------------------------------------------------------|

************************************

| /   slide up
| \   slide down
| h   hammer-on
| p   pull-off
| ~   vibrato
| +   harmonic
| x   Mute note
| b   Bend
| pb  Pre-bend
| br  Bend release
| pbr Pre-bend release
| brb Bend release bend

************************************
comments
We did not receive enough feedback on this tab! Please rate:
print report bad tab
1 2 3 4 5
1 comment total.
0 reply
swave75 wrote on November 19 2012, 07:33 pm

Excellent tab dude!

I want to post or [tab]
guest
You may want to rate the tab now too:
select rating
Please do not post tabs as comments. Select "correction" instead!