Oops, an error
Loading. Please wait.

Pictures Of You Tab

version 1
version 1

Intro

Whole song

Interactive

33,826 views 147 this week
3 commentsread comments
1 2 3 4 5
excellent!
x 15
add to favorites
launch autoscroll
font size
0
reset
how to read this tab
guitar tuner
Tab Pro tools
  • play this tab
  • loop segment
  • change instrument
  • show fretboard
  • metronome
×
Best way to learn
"Pictures Of You"
Autoscroll
slow
fast
+/-
esc
set tempo
stop
Contributor
-------------------------------------------------------------------------------
                             Pictures Of You – The Cure
-------------------------------------------------------------------------------
Tabbed by:lp345
Email:sean_pinkfloyd@yahoo.co.uk
This is my first ever tab, feel free to email me about mistakes etc.
Enjoy the tab!
Check the song for timing etc.

Tuning: Standard

e|---------------------------------------------------------------------------|
B|---------------------------------------------------------------------------|
G|---------------------------------------------------------------------------|\
D|2-222-22-22-777-4-444-44-44-444---x2---------------------------------------| \
A|---------------------------------------------------------------------------|  \
E|---------------------------------------------------------------------------|   \  
                                                                                   X2
e|---------------------------------------------------------------------------|   /
B|---------------------------------------------------------------------------|  /
G|---------------------------------------------------------------------------| /
D|222-22-00-------------------0-000-00-000----x2-----------------------------|/
A|-----------4-444-44-444-2h4------------------------------------------------|
E|---------------------------------------------------------------------------|

00:46
e|---------------------------------------------------------------------------|
B|---------------------------------------------------------------------------|
G|-9-999-99-99-999-7-777-77-77-777-6-666-66-66-777-2-222-22-22-222-4444------|\
D|---------------------------------------------------------------------------| \
A|---------------------------------------------------------------------------|  \
E|---------------------------------------------------------------------------|   \
                                                                                  X2 
e|---------------------------------------------------------------------------|   /
B|---------------------------------------------------------------------------|  /
G|-4s6-666-66-66-666-7-777-77-77-999-99-77-6-666-66-66-4-6-2-222-22-22-222---| / 
D|---------------------------------------------------------------------------|/
A|---------------------------------------------------------------------------|
E|---------------------------------------------------------------------------|
1:30
Guitar 1
e|---------------------------------------------------------------------------|
B|---------------------------------------------------------------------------|
G|---------------------------------------------------------------------------|
D|---------------------------------------------------------------------------|
A|-0-2-5-7-0-2-5-------------------------------------------------------------|
E|---------------------------------------------------------------------------|
Guitar 2
e|---------------------------------------------------------------------------|
B|---------------------------------------------------------------------------|
G|---------------------------------------------------------------11-11-11-11-|
D|-9-9999-99-11-11-11-9-99-9-9999-99-11-11-11-9-9999-99-11-11-11-------------|
A|---------------------------------------------------------------------------|
E|---------------------------------------------------------------------------|
Guitar 2(continued)
e|---------------------------------------------------------------------------|
B|---------------------------------------------------------------------------|
G|---------------------------------------------------------------------------|
D|9-999-99-77-7--------------------------------------------------------------|
A|---------------------------------------------------------------------------|
E|---------------------------------------------------------------------------|
2:15
e|---------------------------------------------------------------------------|
B|---------------------------------------------------------------------------|
G|---------------------------------------------------------------------------|
D|-9h11-11-11-11-11-11-99-9-99-9h11-11-11-11-11-11-99-9-9h11-11-11-11-11-11--|
A|---------------------------------------------------------------------------|
E|---------------------------------------------------------------------------|

e|---------------------------------------------------------------------------|
B|---------------------------------------------------------------------------|
G|----11-11-11-11------------------------------------------------------------|
D|-99-------------9-9999-99-77-7---------------------------------------------|
A|---------------------------------------------------------------------------|
E|---------------------------------------------------------------------------|
5:36
e|--7-5---7-5----------------------------------------------------------------|
B|------5-----5-0-2-0-2-0-2-0-2-0-2-----------------------------------------|
G|---------------------------------------------------------------------------|
D|---------------------------------------------------------------------------|
A|---------------------------------------------------------------------------|
E|---------------------------------------------------------------------------|

The part in the verse is the same as Guitar 1 at 1:30
The riff at 2:15 also comes into the verse at 3:00

Enjoy the tab!
comments
print report bad tab
3 comments total.
+1 reply
swave75 wrote on January 17 2012, 10:14 pm

Wonderful!!!!

0 reply
bullisnwconst wrote on June 23 2013, 10:24 am

Thank you. Very helpful.

0 reply
wrappedinsky wrote on May 24 2014, 09:10 pm

Nice. Thanks.

I want to post or [tab]
guest
You may want to rate the tab now too:
select rating
Please do not post tabs as comments. Select "correction" instead!