Oops, an error
Loading. Please wait.

Pictures Of You tab

version 2
version 2

Whole song

Interactive

61,362 views 123 this week
1 commentread comment
1 2 3 4 5
x 6
add to favorites
×
Save as Personal and add changes to this tab that will be seen only by you. Learn more ›
×
You can save this tab as Personal to edit and correct it or add notes. All changes will be seen only by you. Learn more »
launch autoscroll
font size
0
reset
how to read this tab
guitar tuner
backing track
0:00
0:00
edit
Autoscroll
slow
fast
+/-
esc
set tempo
stop
Author
PICTURES OF YOU
                             As recorded by The Cure
                      (From the 1989 Album DISINTEGRATION)



           A                    D                    E                   Bm7
      x 0 2 2 2 0          x x 0 2 3 2          0 2 2 1 0 0          x 2 4 2 3 2

         A/C#                  A/E                 D/F#
      x 4 2 2 5 5          x 7 7 6 5 x          x 9 7 7 7 x

[Intro]

Q=86
N.C.
4/4
Gtr I

e||--------------------------------|-------------------------------|
B||o-------------------------------|-------------------------------|
G||--------------------------------|-------------------------------|
D||--2-2-2-2-2-2-(2)-2-2-2s7-7-7-7-|-4-4-4-4-4-4-(4)-4-4-4-4-4-4s2-|
A||o-------------------------------|-------------------------------|
E||--------------------------------|-------------------------------|


e|-------------------------------|-------------------------------|
B|-------------------------------|-------------------------------|
G|-------------------------------|-------------------------------|
D|-2-2-2-2-2-2-(2)-2-2-2s7-7-7-7-|-4-4-4-4-4-4-(4)-4-4-4-4s2-2-2-|
A|-------------------------------|-------------------------------|
E|-------------------------------|-------------------------------|


e|------------------------------|----------------------|
B|------------------------------|----------------------|
G|------------------------------|----------------------|
D|-2-2-0-(0)-0------------------|----------2-(2)-2-2-2-|
A|-------------4-(4)--(4)-4-4-4-|-5----(5)-------------|
E|------------------------------|----------------------|


e|------------------------------|-----------------------||
B|------------------------------|----------------------o||
G|------------------------------|-----------------------||
D|-2-2-0-(0)-0------------------|----------2-(2)-2-2-2--||
A|-------------4-(4)--(4)-4-4-4-|-5----(5)-------------o||
E|------------------------------|-----------------------||


    4/4
     Gtr I
e||--------------------------------|---------------------------------|
B||o-------------------------------|---------------------------------|
G||--------------------------------|---------------------------------|
D||--2-2-2-2-2-2-(2)-2-2-2s7-7-7-7-|-4-4-4-4-4-4-(4)-4-4-4--4--4-4s2-|
A||o-------------------------------|---------------------------------|
E||--------------------------------|---------------------------------|
 |
 |   Gtr II
e||--------------------------------|---------------------------------|
B||o-------------------------------|---------------------------------|
G||--9-9-9-9-9-9-(9)-9-9-9-9-9-9-9-|-7-7-7-7-7-7-(7)-7-7---(7)-7-7-7-|
D||--------------------------------|---------------------------------|
A||o-------------------------------|---------------------------------|
E||--------------------------------|---------------------------------|


e|-----------------------------------|--------------------------------|
B|-----------------------------------|--------------------------------|
G|-----------------------------------|--------------------------------|
D|-2-2-2-2---2-2-(2)-2-2-2s=7-7-7--7-|-4-4-4-4-4-4-(4)-4-4-4-4s2-2-2--|
A|-----------------------------------|--------------------------------|
E|-----------------------------------|--------------------------------|
 |
e|-----------------------------------|--------------------------------|
B|-----------------------------------|--------------------------------|
G|-6-6-6-6-6-6-6-(6)-6-6-6/-7-7-7---|-2-2-2-2-2-2-(2)-2-2-2-4-4-4-4--|
D|-----------------------------------|--------------------------------|
A|-----------------------------------|--------------------------------|
E|-----------------------------------|--------------------------------|


e|-------------------------------------|---------------------------------|
B|-------------------------------------|---------------------------------|
G|-------------------------------------|---------------------------------|
D|-2---2-0-(0)-0-----------------------|---------------------2-(2)2-2-2--|
A|---------------4---(4)-----(4)-4-4-4-|-5-------------(5)---------------|
E|-------------------------------------|---------------------------------|
 |
e|-------------------------------------|---------------------------------|
B|-------------------------------------|---------------------------------|
G|-4s6-6-6--6----6-6-(6)-6-6--6--6-6-6-|-7-7-7-7-7-7-7-(7)-7-7--7s9-9-9--|
D|-------------------------------------|---------------------------------|
A|-------------------------------------|---------------------------------|
E|-------------------------------------|---------------------------------|


e|---------------------------------------|-----------------------------------||
B|---------------------------------------|----------------------------------o||
G|---------------------------------------|-----------------------------------||
D|-2---2-0-(0)-0-------------------------|---------------------2-(2)-2-2-2---||
A|---------------4---(4)-------(4)-4-4-4-|-5-------------(5)----------------o||
E|---------------------------------------|-----------------------------------||
 |
e|---------------------------------------|-----------------------------------||
B|---------------------------------------|----------------------------------o||
G|-9-9-9-7-(7)-7-6-6--6--6-6-6--6--4-6---|-2-2-2-(2)-2-2-(2)-2-2--2--2-2-2---||
D|---------------------------------------|-----------------------------------||
A|---------------------------------------|----------------------------------o||
E|---------------------------------------|-----------------------------------||


     A
     Gtr II
e||----------------------------------------|
B||o---------------------------------------|
G||----------------------------------------|
D||--9-9-9-9-(9)-9-9-(9)-11-11-11-11-9-9-9-|
A||o---------------------------------------|
E||----------------------------------------|
 |
 |   Gtr III
e||----------------------------------------|
B||o---------------------------------------|
G||----------------------------------------|
D||----------------------------------------|
A||o-0-----------------------------2-------|
E||----------------------------------------|


   D
e|---------------------------------------|
B|---------------------------------------|
G|---------------------------------------|
D|-9-9-9-9-(9)-9-9-(9)-11-11-11-11-9-9-9-|
A|---------------------------------------|
E|---------------------------------------|
 |
e|---------------------------------------|
B|---------------------------------------|
G|---------------------------------------|
D|-0-----------------------------2-------|
A|---------------------------------------|
E|---------------------------------------|


   A
e|------------------------------------------|
B|------------------------------------------|
G|------------------------------11-11-11-11-|
D|-9-9-9-9-(9)-9-9-(9)-11-11-11-------------|
A|------------------------------------------|
E|------------------------------------------|
 |
e|------------------------------------------|
B|------------------------------------------|
G|------------------------------------------|
D|------------------------------------------|
A|-0-----------------------------2----------|
E|------------------------------------------|


  1.
   D
e|----------------------------------------||
B|---------------------------------------o||
G|----------------------------------------||
D|-9-9-9-9-9-9-9-9-(9)-------------9-9-9--||
A|---------------------12-12-12-12-------o||
E|----------------------------------------||
 |
e|----------------------------------------||
B|---------------------------------------o||
G|----------------------------------------||
D|----------------------------------------||
A|---------------------------------------o||
E|-0-----------------------------2--------||


[Verse]

   2.
   D                                    A
e|-----------------------------------||-----------|
B|-----------------------------------||-----------|
G|-----------------------------------||-----------|
D|-9-9-9-9-9-9-9-9-(9)-7-7-7-7-7-7-7-||-----------|
A|-----------------------------------||-----------|
E|-----------------------------------||-----------|
 |
e|-----------------------------------||-----------|
B|-----------------------------------||-----------|
G|-----------------------------------||-----------|
D|---------------------------2-------||-----------|
A|-0---------------------------------||-0------2--|
E|-----------------------------------||-----------|


   D           A
   Gtr III
e|-----------|-----------|
B|-----------|-----------|
G|-----------|-----------|
D|-0------4--|-----------|
A|-----------|-0------2--|
E|-----------|-----------|


   D           A
e|-----------|-----------|
B|-----------|-----------|
G|-----------|-----------|
D|-----------|-----------|
A|-----------|-0------2--|
E|-0------2--|-----------|


   D           A
e|-----------|-----------|
B|-----------|-----------|
G|-----------|-----------|
D|-0------4--|-----------|
A|-----------|-0------2--|
E|-----------|-----------|


   D             A
                 Gtr II
e|-----------||------------------------------------|
B|-----------||o-5---5-5-5---5-5-(5)-5-3-3-2-2-2-2-|
G|-----------||------------------------------------|
D|-----------||------------------------------------|
A|-----------||o-----------------------------------|
E|-0------2--||------------------------------------|
 |
 |               Gtr I
e|-----------||------------------------------------|
B|-----------||o---2-2-2-2-2-2-2-(2)---------------|
G|-----------||--4-------------------4-4---4-4-4-4-|
D|-----------||------------------------------------|
A|-----------||o-----------------------------------|
E|-----------||------------------------------------|
 |
 |               Gtr III
e|-----------||------------------------------------|
B|-----------||o-----------------------------------|
G|-----------||------------------------------------|
D|-----------||------------------------------------|
A|-----------||o-0-------------------------2-------|
E|-----------||------------------------------------|


   D                                 A
e|---------------------------------|---------------------------------|
B|---2-2---2-----2-(2)---2-5-5-5-5-|---2-2---2-----2-(2)---2-5-5-5-5-|
G|-4-----4-----4-------4-----------|-4-----4-----4-------4-----------|
D|---------------------------------|---------------------------------|
A|---------------------------------|---------------------------------|
E|---------------------------------|---------------------------------|
 |
e|---------------------------------|---------------------------------|
B|---2-2-2-2-2-2-2-(2)-------------|---2-2-2-2-2-2-2-(2)-------------|
G|-4-------------------4-4-4-4-4-4-|-4-------------------4-4-4-4-4-4-|
D|---------------------------------|---------------------------------|
A|---------------------------------|---------------------------------|
E|---------------------------------|---------------------------------|
 |
e|---------------------------------|---------------------------------|
B|---------------------------------|---------------------------------|
G|---------------------------------|---------------------------------|
D|-0-----------------------4-------|---------------------------------|
A|---------------------------------|-0-----------------------2-------|
E|---------------------------------|---------------------------------|


   1.                                  2.
   D                                    D
e|-----------------------------------||----------------------------------||
B|---2-2---2---2-(2)---2------------o||---2-2---2---2-(2)---2------------||
G|-4-----4---4-------4-----4/---9-9--||-4-----4---4-------4-----4/---9-9-||
D|-----------------------------------||----------------------------------||
A|----------------------------------o||----------------------------------||
E|-----------------------------------||----------------------------------||
 |
e|-----------------------------------||----------------------------------||
B|----------------------------------o||----------------------------------||
G|-4---4-4-4-4-4-(4)-2-2-2-2--2-2-2--||-4---4-4-4-4-4-(4)-2-2-2-2--2-2-2-||
D|-----------------------------------||----------------------------------||
A|----------------------------------o||----------------------------------||
E|-----------------------------------||----------------------------------||
 |
e|-----------------------------------||----------------------------------||
B|----------------------------------o||----------------------------------||
G|-----------------------------------||----------------------------------||
D|-0-----------------------4---------||----------------------------------||
A|----------------------------------o||-0-----------------------2--------||
E|-----------------------------------||----------------------------------||


   A           D           A
   Gtr III
e|-----------|-----------|-----------|
B|-----------|-----------|-----------|
G|-----------|-----------|-----------|
D|-----------|-0------4--|-----------|
A|-0------2--|-----------|-0------2--|
E|-----------|-----------|-----------|


   D           A           D
e|-----------|-----------|-----------|
B|-----------|-----------|-----------|
G|-----------|-----------|-----------|
D|-----------|-----------|-0------4--|
A|-----------|-0------2--|-----------|
E|-0------2--|-----------|-----------|


   A           D             A
                             Gtr II
e|-----------|-----------||------------------------------------|
B|-----------|-----------||o-5---5-5-5---5-5-(5)-5-3-3-2-2-2-2-|
G|-----------|-----------||------------------------------------|
D|-----------|-----------||------------------------------------|
A|-0------2--|-----------||o-----------------------------------|
E|-----------|-0------2--||------------------------------------|
 |
 |                           Gtr I
e|-----------|-----------||------------------------------------|
B|-----------|-----------||o---2-2-2-2-2-2-2-(2)---------------|
G|-----------|-----------||--4-------------------4-4---4-4-4-4-|
D|-----------|-----------||------------------------------------|
A|-----------|-----------||o-----------------------------------|
E|-----------|-----------||------------------------------------|
 |
 |                           Gtr III
e|-----------|-----------||------------------------------------|
B|-----------|-----------||o-----------------------------------|
G|-----------|-----------||------------------------------------|
D|-----------|-----------||------------------------------------|
A|-----------|-----------||o-0-------------------------2-------|
E|-----------|-----------||------------------------------------|


   D                                 A
e|---------------------------------|---------------------------------|
B|---2-2---2-----2-(2)---2-5-5-5-5-|---2-2---2-----2-(2)---2-5-5-5-5-|
G|-4-----4-----4-------4-----------|-4-----4-----4-------4-----------|
D|---------------------------------|---------------------------------|
A|---------------------------------|---------------------------------|
E|---------------------------------|---------------------------------|
 |
e|---------------------------------|---------------------------------|
B|---2-2-2-2-2-2-2-(2)-------------|---2-2-2-2-2-2-2-(2)-------------|
G|-4-------------------4-4-4-4-4-4-|-4-------------------4-4-4-4-4-4-|
D|---------------------------------|---------------------------------|
A|---------------------------------|---------------------------------|
E|---------------------------------|---------------------------------|
 |
e|---------------------------------|---------------------------------|
B|---------------------------------|---------------------------------|
G|---------------------------------|---------------------------------|
D|-0-----------------------4-------|---------------------------------|
A|---------------------------------|-0-----------------------2-------|
E|---------------------------------|---------------------------------|


   1.                                  2.
   D                                    D
e|-----------------------------------||----------------------------------||
B|---2-2---2---2-(2)---2------------o||---2-2---2---2-(2)---2------------||
G|-4-----4---4-------4-----4/---9-9--||-4-----4---4-------4-----4/---9-9-||
D|-----------------------------------||----------------------------------||
A|----------------------------------o||----------------------------------||
E|-----------------------------------||----------------------------------||
 |
e|-----------------------------------||----------------------------------||
B|----------------------------------o||----------------------------------||
G|-4---4-4-4-4-4-(4)-2-2-2-2--2-2-2--||-4---4-4-4-4-4-(4)-2-2-2-2--2-2-2-||
D|-----------------------------------||----------------------------------||
A|----------------------------------o||----------------------------------||
E|-----------------------------------||----------------------------------||
 |
e|-----------------------------------||----------------------------------||
B|----------------------------------o||----------------------------------||
G|-----------------------------------||----------------------------------||
D|-0-----------------------4---------||----------------------------------||
A|----------------------------------o||-0-----------------------2--------||
E|-----------------------------------||----------------------------------||


     A                                 D
e||----------------------------------|-----------------------------------|
B||o-5-5-5-5-5---5-5-(5)-5-5-5-5-5-5-|-5s7-7-7-7---7-7-(7)-7-7-7s10-10---|
G||----------------------------------|-----------------------------------|
D||----------------------------------|-----------------------------------|
A||o---------------------------------|-----------------------------------|
E||----------------------------------|-----------------------------------|
 |
e||----------------------------------|-----------------------------------|
B||o---2-2-2-2-2-2-2-(2)-------------|---2-2-2-2-2-2-2-(2)---------------|
G||--4-------------------4-4-4-4-4-4-|-4-------------------4-4-4--4--4-4-|
D||----------------------------------|-----------------------------------|
A||o---------------------------------|-----------------------------------|
E||----------------------------------|-----------------------------------|
 |
e||----------------------------------|-----------------------------------|
B||o---------------------------------|-----------------------------------|
G||----------------------------------|-----------------------------------|
D||----------------------------------|-0-----------------------4---------|
A||o-0-----------------------2-------|-----------------------------------|
E||----------------------------------|-----------------------------------|


                                    1.
   A                                 D
e|---------------------------------|-------------------------------------||
B|-5-5-5-5-5---5-5-(5)-5-5-5-5-5-5-|-5s7-7-7-7-7-7-(7)-7-7s10-10---10s5-o||
G|---------------------------------|-------------------------------------||
D|---------------------------------|-------------------------------------||
A|---------------------------------|------------------------------------o||
E|---------------------------------|-------------------------------------||
 |
e|---------------------------------|-------------------------------------||
B|---2-2-2-2-2-2-2-(2)-------------|------------------------------------o||
G|-4-------------------4-4-4-4-4-4-|-4---4-4-4-4-4-(4)-2-2--2--2-2--2-2--||
D|---------------------------------|-------------------------------------||
A|---------------------------------|------------------------------------o||
E|---------------------------------|-------------------------------------||
 |
e|---------------------------------|-------------------------------------||
B|---------------------------------|------------------------------------o||
G|---------------------------------|-------------------------------------||
D|---------------------------------|-0-------------------------4---------||
A|-0-----------------------2-------|------------------------------------o||
E|---------------------------------|-------------------------------------||


   2.
   D                                    A           D           A
e|------------------------------------|-----------|-----------|------------|
B|-5s7-7-7-7-7-7-(7)-7-7s10-10---10s5-|-----------|-----------|------------|
G|------------------------------------|-----------|-----------|------------|
D|------------------------------------|-----------|-----------|------------|
A|------------------------------------|-----------|-----------|------------|
E|------------------------------------|-----------|-----------|------------|
 |
e|------------------------------------|-----------|-----------|------------|
B|------------------------------------|-----------|-----------|------------|
G|-4---4-4-4-4-4-(4)-2-2--2--2-2--2-2-|-----------|-----------|------------|
D|------------------------------------|-----------|-----------|------------|
A|------------------------------------|-----------|-----------|------------|
E|------------------------------------|-----------|-----------|------------|
 |
e|------------------------------------|-----------|-----------|------------|
B|------------------------------------|-----------|-----------|------------|
G|------------------------------------|-----------|-----------|------------|
D|------------------------------------|-----------|-0------4--|------------|
A|-0-------------------------2--------|-0------2--|-----------|-0------2---|
E|------------------------------------|-----------|-----------|------------|


   D           A           D
   Gtr III
e|-----------|-----------|-----------|
B|-----------|-----------|-----------|
G|-----------|-----------|-----------|
D|-----------|-----------|-0------4--|
A|-----------|-0------2--|-----------|
E|-0------2--|-----------|-----------|


   A           D            A
                            Gtr II
e|-----------|-----------||-----------------------------------|
B|-----------|-----------||-5---5-5-5---5-5-(5)-5-3-3-2-2-2-2-|
G|-----------|-----------||-----------------------------------|
D|-----------|-----------||-----------------------------------|
A|-0------2--|-----------||-----------------------------------|
E|-----------|-0------2--||-----------------------------------|
 |
 |                          Gtr I
e|-----------|-----------||-----------------------------------|
B|-----------|-----------||---2-2-2-2-2-2-2-(2)---------------|
G|-----------|-----------||-4-------------------4-4---4-4-4-4-|
D|-----------|-----------||-----------------------------------|
A|-----------|-----------||-----------------------------------|
E|-----------|-----------||-----------------------------------|
 |
 |                          Gtr III
e|-----------|-----------||-----------------------------------|
B|-----------|-----------||-----------------------------------|
G|-----------|-----------||-----------------------------------|
D|-----------|-----------||-----------------------------------|
A|-----------|-----------||-0-------------------------2-------|
E|-----------|-----------||-----------------------------------|


   D                                 A
e|---------------------------------|---------------------------------|
B|---2-2---2-----2-(2)---2-5-5-5-5-|---2-2---2-----2-(2)---2-5-5-5-5-|
G|-4-----4-----4-------4-----------|-4-----4-----4-------4-----------|
D|---------------------------------|---------------------------------|
A|---------------------------------|---------------------------------|
E|---------------------------------|---------------------------------|
 |
e|---------------------------------|---------------------------------|
B|---2-2-2-2-2-2-2-(2)-------------|---2-2-2-2-2-2-2-(2)-------------|
G|-4-------------------4-4-4-4-4-4-|-4-------------------4-4-4-4-4-4-|
D|---------------------------------|---------------------------------|
A|---------------------------------|---------------------------------|
E|---------------------------------|---------------------------------|
 |
e|---------------------------------|---------------------------------|
B|---------------------------------|---------------------------------|
G|---------------------------------|---------------------------------|
D|-0-----------------------4-------|---------------------------------|
A|---------------------------------|-0-----------------------2-------|
E|---------------------------------|---------------------------------|


   D                                  A
e|----------------------------------|-----------------------------------|
B|---2-2---2---2-(2)---2------------|-5---5-5-5---5-5-(5)-5-3-3-2-2-2-2-|
G|-4-----4---4-------4-----4/---9-9-|-----------------------------------|
D|----------------------------------|-----------------------------------|
A|----------------------------------|-----------------------------------|
E|----------------------------------|-----------------------------------|
 |
e|----------------------------------|-----------------------------------|
B|----------------------------------|---2-2-2-2-2-2-2-(2)---------------|
G|-4---4-4-4-4-4-(4)-2-2-2-2--2-2-2-|-4-------------------4-4---4-4-4-4-|
D|----------------------------------|-----------------------------------|
A|----------------------------------|-----------------------------------|
E|----------------------------------|-----------------------------------|
 |
e|----------------------------------|-----------------------------------|
B|----------------------------------|-----------------------------------|
G|----------------------------------|-----------------------------------|
D|-0-----------------------4--------|-----------------------------------|
A|----------------------------------|-0-------------------------2-------|
E|----------------------------------|-----------------------------------|


   D                                 A
e|---------------------------------|---------------------------------|
B|---2-2---2-----2-(2)---2-5-5-5-5-|---2-2---2-----2-(2)---2-5-5-5-5-|
G|-4-----4-----4-------4-----------|-4-----4-----4-------4-----------|
D|---------------------------------|---------------------------------|
A|---------------------------------|---------------------------------|
E|---------------------------------|---------------------------------|
 |
e|---------------------------------|---------------------------------|
B|---2-2-2-2-2-2-2-(2)-------------|---2-2-2-2-2-2-2-(2)-------------|
G|-4-------------------4-4-4-4-4-4-|-4-------------------4-4-4-4-4-4-|
D|---------------------------------|---------------------------------|
A|---------------------------------|---------------------------------|
E|---------------------------------|---------------------------------|
 |
e|---------------------------------|---------------------------------|
B|---------------------------------|---------------------------------|
G|---------------------------------|---------------------------------|
D|-0-----------------------4-------|---------------------------------|
A|---------------------------------|-0-----------------------2-------|
E|---------------------------------|---------------------------------|


   D
e|----------------------------------|
B|---2-2---2---2-(2)---2------------|
G|-4-----4---4-------4-----4/---9-9-|
D|----------------------------------|
A|----------------------------------|
E|----------------------------------|
 |
e|----------------------------------|
B|----------------------------------|
G|-4---4-4-4-4-4-(4)-2-2-2-2--2-2-2-|
D|----------------------------------|
A|----------------------------------|
E|----------------------------------|
 |
e|----------------------------------|
B|----------------------------------|
G|----------------------------------|
D|-0-----------------------4--------|
A|----------------------------------|
E|----------------------------------|


 [Chorus]
   E                               D
e|-------------------------------|-------------------------------|
B|-------------------------------|-------------------------------|
G|-4-4-4-4-4-4-4-(4)-4-4-6-6-6-6-|-------------------------------|
D|-------------------------------|-7-7-7-7-7-7-(7)-7-7-7-7-7-7---|
A|-------------------------------|-------------------------------|
E|-------------------------------|-------------------------------|
 |
e|-------------------------------|-------------------------------|
B|-------------------------------|-------------------------------|
G|-------------------------------|-------------------------------|
D|-------------------------------|-------------------------------|
A|-------------------------------|-------------------------------|
E|-------------------------------|-------------------------------|
 |
e|-------------------------------|-------------------------------|
B|-------------------------------|-------------------------------|
G|-------------------------------|-------------------------------|
D|-------------------------------|-------------------------------|
A|-------------------------------|-------------------------------|
E|-------------------------------|-------------------------------|


   E                               D
e|-------------------------------|-----------------------------|
B|-------------------------------|-----------------------------|
G|-4-4-4-4-4-4-4-(4)-4-4-6-6-6-6-|-----------------------------|
D|-------------------------------|-7-7-7-7-7-7-(7)-7-7-7-7-7-7-|
A|-------------------------------|-----------------------------|
E|-------------------------------|-----------------------------|


   E                               D
e|-------------------------------|-----------------------------|
B|-------------------------------|-----------------------------|
G|-4-4-4-4-4-4-4-(4)-4-4-6-6-6-6-|-----------------------------|
D|-------------------------------|-7-7-7-7-7-7-(7)-7-7-7-7-7-7-|
A|-------------------------------|-----------------------------|
E|-------------------------------|-----------------------------|


   E                               Bm7
e|-------------------------------|---------------------------------||
B|-------------------------------|---------------------------------||
G|-4-4-4-4-4-4-4-(4)-4-4-6-6-6-6-|-7-7-7-7-7-7-7-7-9-9-9-9-9-9-9-9-||
D|-------------------------------|---------------------------------||
A|-------------------------------|---------------------------------||
E|-------------------------------|---------------------------------||


 [Verse]
     $
     A                                 D
e||--7-7-7-5-5-5-----7-7-7-5-5-5-----|----------------------------|
B||o-------------5-5-------------5-5-|-5---------5-(5)------------|
G||----------------------------------|---7-6-6-6-------7-6-6-6-6--|
D||----------------------------------|----------------------------|
A||o---------------------------------|----------------------------|
E||----------------------------------|----------------------------|


                                                      To Coda
   A                                 D
e|-7-7-7-5-5-5-----7-7-7-5-5-5-----|----------------------------||
B|-------------5-5-------------5-5-|-5---------5-(5)-----------o||
G|---------------------------------|---7-6-6-6-------7-6-6-6-6--||
D|---------------------------------|----------------------------||
A|---------------------------------|---------------------------o||
E|---------------------------------|----------------------------||


   A
   Gtr II
e|-----------------------------------|
B|-5---5-5-5---5-5-(5)-5-3-3-2-2-2-2-|
G|-----------------------------------|
D|-----------------------------------|
A|-----------------------------------|
E|-----------------------------------|
 |
 | Gtr I
e|-----------------------------------|
B|---2-2-2-2-2-2-2-(2)---------------|
G|-4-------------------4-4---4-4-4-4-|
D|-----------------------------------|
A|-----------------------------------|
E|-----------------------------------|
 |
 | Gtr III
e|-----------------------------------|
B|-----------------------------------|
G|-----------------------------------|
D|-----------------------------------|
A|-0-------------------------2-------|
E|-----------------------------------|


   D                                 A
e|---------------------------------|----------------------------------|
B|---2-2---2-----2-(2)---2-5-5-5-5-|---2-2---2-----2-(2)---2-5-5-5-5--|
G|-4-----4-----4-------4-----------|-4-----4-----4-------4------------|
D|---------------------------------|----------------------------------|
A|---------------------------------|----------------------------------|
E|---------------------------------|----------------------------------|
 |
e|---------------------------------|----------------------------------|
B|---2-2-2-2-2-2-2-(2)-------------|---2-2-2-2-2-2-2-(2)--------------|
G|-4-------------------4-4-4-4-4-4-|-4-------------------4-4-4-4-4-4--|
D|---------------------------------|----------------------------------|
A|---------------------------------|----------------------------------|
E|---------------------------------|----------------------------------|
 |
e|---------------------------------|----------------------------------|
B|---------------------------------|----------------------------------|
G|---------------------------------|----------------------------------|
D|-0-----------------------4-------|----------------------------------|
A|---------------------------------|-0-----------------------2--------|
E|---------------------------------|----------------------------------|


   D
e|----------------------------------|
B|---2-2---2---2-(2)---2------------|
G|-4-----4---4-------4-----4/---9-9-|
D|----------------------------------|
A|----------------------------------|
E|----------------------------------|
 |
e|----------------------------------|
B|----------------------------------|
G|-4---4-4-4-4-4-(4)-2-2-2-2--2-2-2-|
D|----------------------------------|
A|----------------------------------|
E|----------------------------------|
 |
e|----------------------------------|
B|----------------------------------|
G|----------------------------------|
D|-0-----------------------4--------|
A|----------------------------------|
E|----------------------------------|


   A                                   D
e|-----------------------------------|----------------------------------|
B|-5---5-5-5---5-5-(5)-5-3-3-2-2-2-2-|---2-2---2-----2-(2)---2-5-5-5-5--|
G|-----------------------------------|-4-----4-----4-------4------------|
D|-----------------------------------|----------------------------------|
A|-----------------------------------|----------------------------------|
E|-----------------------------------|----------------------------------|
 |
e|-----------------------------------|----------------------------------|
B|---2-2-2-2-2-2-2-(2)---------------|---2-2-2-2-2-2-2-(2)--------------|
G|-4-------------------4-4---4-4-4-4-|-4-------------------4-4-4-4-4-4--|
D|-----------------------------------|----------------------------------|
A|-----------------------------------|----------------------------------|
E|-----------------------------------|----------------------------------|
 |
e|-----------------------------------|----------------------------------|
B|-----------------------------------|----------------------------------|
G|-----------------------------------|----------------------------------|
D|-----------------------------------|-0-----------------------4--------|
A|-0-------------------------2-------|----------------------------------|
E|-----------------------------------|----------------------------------|


                                                        D.S. al Coda
   A                                 D
e|---------------------------------|----------------------------------|
B|---2-2---2-----2-(2)---2-5-5-5-5-|---2-2---2---2-(2)---2------------|
G|-4-----4-----4-------4-----------|-4-----4---4-------4-----4/---9-9-|
D|---------------------------------|----------------------------------|
A|---------------------------------|----------------------------------|
E|---------------------------------|----------------------------------|
 |
e|---------------------------------|----------------------------------|
B|---2-2-2-2-2-2-2-(2)-------------|----------------------------------|
G|-4-------------------4-4-4-4-4-4-|-4---4-4-4-4-4-(4)-2-2-2-2--2-2-2-|
D|---------------------------------|----------------------------------|
A|---------------------------------|----------------------------------|
E|---------------------------------|----------------------------------|
 |
e|---------------------------------|----------------------------------|
B|---------------------------------|----------------------------------|
G|---------------------------------|----------------------------------|
D|---------------------------------|----------------------------------|
A|-0-----------------------2-------|-0-----------------------2--------|
E|---------------------------------|----------------------------------|


   &
   A                           Bm7
e|---------------------------|-----------------------------------------|
B|---------------------------|-----------------------------------------|
G|-9-9-9-9-9-9-(9)-9-9-9-9-9-|-9-11-11-11-11-11-(11)-11-11-11s14-14-14-|
D|---------------------------|-----------------------------------------|
A|---------------------------|-----------------------------------------|
E|---------------------------|-----------------------------------------|


   A/C#                         D
e|----------------------------|-----------------------------------------|
B|----------------------------|-----------------------------------------|
G|-14s9-9-9-9-(9)-9-9-9-9-9-9-|-9s11-11-11-11-11-(11)-11-11-11-11-14-14-|
D|----------------------------|-----------------------------------------|
A|----------------------------|-----------------------------------------|
E|----------------------------|-----------------------------------------|


   A/C#                         D
e|----------------------------|-----------------------------------|
B|----------------------------|-----------------------------------|
G|-14s9-9-9-9-9-(9)-7-6-6-6s9-|-9-11-11-11-11-(11)-11-11-11-14-14-|
D|----------------------------|-----------------------------------|
A|----------------------------|-----------------------------------|
E|----------------------------|-----------------------------------|


   A/E                         D/F#
e|---------------------------|-----------------------------------||
B|---------------------------|-----------------------------------||
G|-14-9-9-9-9-(9)-9-9-9-6-6-|-6-7-9-9-9-9-9-9-(9)-9-9-9-9-9-9-9-||
D|---------------------------|-----------------------------------||
A|---------------------------|-----------------------------------||
E|---------------------------|-----------------------------------||


 [Interlude]

   A                           Bm7
e|---------------------------|-----------------------------------------|
B|---------------------------|-----------------------------------------|
G|-9-9-9-9-9-9-(9)-9-9-9-9-9-|-9-11-11-11-11-11-(11)-11-11-11s14-14-14-|
D|---------------------------|-----------------------------------------|
A|---------------------------|-----------------------------------------|
E|---------------------------|-----------------------------------------|
 |
 | Gtr IV
e|---------------------------|-7----------------------------5----------|
B|---------------------------|-----------------------------------------|
G|-6-------------------4-----|-----------------------------------------|
D|---------------------------|-----------------------------------------|
A|---------------------------|-----------------------------------------|
E|---------------------------|-----------------------------------------|
 |
 | Gtr III
e|---------------------------|-----------------------------------------|
B|---------------------------|-----------------------------------------|
G|---------------------------|-----------------------------------------|
D|---------------------------|-0----------------------------4----------|
A|-0-------------------2-----|-----------------------------------------|
E|---------------------------|-----------------------------------------|


   A/C#                         D
e|----------------------------|-----------------------------------------|
B|----------------------------|-----------------------------------------|
G|-14s9-9-9-9-(9)-9-9-9-9-9-9-|-9s11-11-11-11-11-(11)-11-11-11-11-14-14-|
D|----------------------------|-----------------------------------------|
A|----------------------------|-----------------------------------------|
E|----------------------------|-----------------------------------------|
 |
e|----------------------------|-----------------------------------------|
B|--5-------------------------|-----------------------------------------|
G|--------------------7-------|---------------------------------4-------|
D|----------------------------|-7---------------------------------------|
A|----------------------------|-----------------------------------------|
E|----------------------------|-----------------------------------------|
 |
e|----------------------------|-----------------------------------------|
B|----------------------------|-----------------------------------------|
G|----------------------------|-----------------------------------------|
D|----------------------------|-0-------------------------------4-------|
A|--0-----------------2-------|-----------------------------------------|
E|----------------------------|-----------------------------------------|


   A/C#                         D
e|----------------------------|-----------------------------------|
B|----------------------------|-----------------------------------|
G|-14s9-9-9-9-9-(9)-7-6-6-6s9-|-9-11-11-11-11-(11)-11-11-11-14-14-|
D|----------------------------|-----------------------------------|
A|----------------------------|-----------------------------------|
E|----------------------------|-----------------------------------|
 |
e|----------------------------|---------------------------5-------|
B|----------------------------|-7---------------------------------|
G|--6-------------------4-----|-----------------------------------|
D|----------------------------|-----------------------------------|
A|----------------------------|-----------------------------------|
E|----------------------------|-----------------------------------|
 |
e|----------------------------|-----------------------------------|
B|----------------------------|-----------------------------------|
G|----------------------------|-----------------------------------|
D|----------------------------|-0-------------------------4-------|
A|--0-------------------2-----|-----------------------------------|
E|----------------------------|-----------------------------------|


   A/E                         D/F#
e|---------------------------|-----------------------------------||
B|---------------------------|-----------------------------------||
G|-14-9-9-9-9-(9)-9-9-9-6-6-|-6-7-9-9-9-9-9-9-(9)-9-9-9-9-9-9-9-||
D|---------------------------|-----------------------------------||
A|---------------------------|-----------------------------------||
E|---------------------------|-----------------------------------||
 |
e|---------------------------|-----------------------------------||
B|--5------------------------|-----------------------------------||
G|--------------------7------|-----------------------------------||
D|---------------------------|-7---------------------------------||
A|---------------------------|-----------------------------------||
E|---------------------------|-----------------------------------||
 |
e|---------------------------|-----------------------------------||
B|---------------------------|-----------------------------------||
G|---------------------------|-----------------------------------||
D|---------------------------|-----------------------------------||
A|--0-----------------2------|-0-------------------------2-------||
E|---------------------------|-----------------------------------||


   A                       Bm7
e|-----------------------|-----------------------|
B|-----------------------|-----------------------|
G|-9-9-9-9-9-9-9-7-6-6-6-|-9-9-9-9-9-9-9-7-6-6-6-|
D|-----------------------|-----------------------|
A|-----------------------|-----------------------|
E|-----------------------|-----------------------|
 |
e|-----------------------|-7-----------------5---|
B|-----------------------|-----------------------|
G|-6-----------------4---|-----------------------|
D|-----------------------|-----------------------|
A|-----------------------|-----------------------|
E|-----------------------|-----------------------|
 |
e|-----------------------|-----------------------|
B|-----------------------|-----------------------|
G|-----------------------|-----------------------|
D|-----------------------|-0-----------------4---|
A|-0-----------------2---|-----------------------|
E|-----------------------|-----------------------|


   A/C#                    D
e|-----------------------|---------------------------|
B|-----------------------|---------------------------|
G|-9-9-9-9-9-9-9-7-6-6-7-|---------------------------|
D|-----------------------|-7-7-7-7-7-7-(7)-7-7-9-9-9-|
A|-----------------------|---------------------------|
E|-----------------------|---------------------------|
 |
e|-----------------------|---------------------------|
B|-5---------------------|---------------------------|
G|-------------------7---|---------------------4-----|
D|-----------------------|-7-------------------------|
A|-----------------------|---------------------------|
E|-----------------------|---------------------------|
 |
e|-----------------------|---------------------------|
B|-----------------------|---------------------------|
G|-----------------------|---------------------------|
D|-----------------------|-0-------------------4-----|
A|-0-----------------2---|---------------------------|
E|-----------------------|---------------------------|


   A/C#                        D
e|---------------------------|---------------------------|
B|---------------------------|---------------------------|
G|---------------6-6-6-------|-----6-(6)---9---6---9---6-|
D|-9-9-9-9-9-(9)-------9-9-9-|-9-9-------9---9---9---9---|
A|---------------------------|---------------------------|
E|---------------------------|---------------------------|
 |
e|---------------------------|---------------------5-----|
B|---------------------------|-7-------------------------|
G|-6-----------------4-------|---------------------------|
D|---------------------------|---------------------------|
A|---------------------------|---------------------------|
E|---------------------------|---------------------------|
 |
e|---------------------------|---------------------------|
B|---------------------------|---------------------------|
G|---------------------------|---------------------------|
D|---------------------------|-0-------------------4-----|
A|-0-----------------2-------|---------------------------|
E|---------------------------|---------------------------|


   A/E                           D/F#
e|-----------------------------|---------------------------------|
B|-----------------------------|---------------------------------|
G|-(6)---6---6---6---6-(6)---6-|-7-7-7-7-7-7-7-(7)-9-9-9-9-9-9-9-|
D|-----9---9---9---9-------9---|---------------------------------|
A|-----------------------------|---------------------------------|
E|-----------------------------|---------------------------------|
|
e|-----------------------------|---------------------------------|
B|--5--------------------------|---------------------------------|
G|----------------------7------|---------------------------------|
D|-----------------------------|-7-------------------------------|
A|-----------------------------|---------------------------------|
E|-----------------------------|---------------------------------|
 |
e|-----------------------------|---------------------------------|
B|-----------------------------|---------------------------------|
G|-----------------------------|---------------------------------|
D|-----------------------------|---------------------------------|
A|--0-------------------2------|-0-----------------------2-------|
E|-----------------------------|---------------------------------|


 [Outro]
   A
e|---------------------------------------------------|
B|---------------------------------------------------|
G|-14-14-14-14-14-14-14-14-13-13-13-13-(13)-13-13-13-|
D|---------------------------------------------------|
A|---------------------------------------------------|
E|---------------------------------------------------|
 |
e|---------------------------------------------------|
B|---------------------------------------------------|
G|--6------------------------------------------------|
D|---------------------------------------------------|
A|---------------------------------------------------|
E|---------------------------------------------------|


e|-----------------------------------------------|
B|-----------------------------------------------|
G|-14--14-14-14-(14)-14-14-14-9-9-9-9-(9)-9-9-9--|
D|-----------------------------------------------|
A|-----------------------------------------------|
E|-----------------------------------------------|
 |
e|-----------------------------------------------|
B|-----------------------------------------------|
G|-(6)-------------------------------------------|
D|-----------------------------------------------|
A|-----------------------------------------------|
E|-----------------------------------------------|


e|--------------------------|---------------------------|------------*|
B|--------------------------|---------------------------|------------*|
G|--9--7-6-6-6-9-(9)-7-6-6--|--9--7-6-6-6-9-9-7-6-6-6-6-|--4---------*|
D|--------------------------|---------------------------|------------*|
A|--------------------------|---------------------------|------------*|
E|--------------------------|---------------------------|------------*|
 |
e|--------------------------|---------------------------|------------*|
B|--------------------------|---------------------------|------------*|
G|-(6)----------------------|-(6)-----------------------|-(6)--------*|
D|--------------------------|---------------------------|------------*|
A|--------------------------|---------------------------|------------*|
E|--------------------------|---------------------------|------------*|



************************************

| (n)  Ghost note
| s    Slide
| /    Slide up
| *    Natural harmonic
| o    reprise

************************************

            
            
Suggest correction
Creating personal tab
Creating personal tab
You can edit any tab online and save it as your Personal.

You can edit, replace or remove any tab part or add personal notes – all changes will be seen only by you.

Personal tabs can be accessed anytime from any device, even offline.
Learn more »
comments
print report bad tab
1 comment total.
0 reply
DeLongeFan182 61 Feb 23, 2009 04:43 PM

Dude this tab is rad. 5 Stars!!!

guest
You may want to rate the tab now too:
select rating
Wanna post a correction for this tab? Suggest correction