Oops, an error
Loading. Please wait.

Plainsong bass

version 1
version 1

Whole song

  • Some elements were borrowed from a tab of this son... Show more

Interactive

4,702 views 6 this week
1 commentread comment
1 2 3 4 5
x 3
add to favorites
×
Save as Personal and add changes to this tab that will be seen only by you. Learn more ›
×
You can save this tab as Personal to edit and correct it or add notes. All changes will be seen only by you. Learn more »
launch autoscroll
font size
0
reset
guitar tuner
edit
Autoscroll
slow
fast
+/-
esc
set tempo
stop
Author
Difficulty
Song: Plainsong
Artist: The Cure
Album: Disintegration
Tuning: Standard
Tabbed By: Sean Cahill 
jungfusoda@gmail.com

Intro:
G|-5-7/9-9-77-14-14-12---|
D|-----------------------|
A|-----------------------| x3
E|-----------------------|

G|-12-12-14-16-5-5-5-7---|
D|-----------------------|
A|-----------------------| x1
E|-----------------------|

Intro Part 2:
G|-5/-7/-9-0-0-2--|
D|----------------|
A|----------------| x2
E|----------------|

G|-5/-7/-9/-10-0-0-2--|
D|--------------------|
A|--------------------| x1
E|--------------------|

G|-5/-7/-9-9-9-9-11-12/14-5-5-5-7-|
D|--------------------------------|
A|--------------------------------| x1
E|--------------------------------|

-No Bass During Verse-

-Play Intro 2x-

-Play Intro Part2 1x-

Ending:
G|---------------------|
D|-5-3-2---3-2-2-1-0---|
A|-------0-----------1-| x
E|---------------------|

This is from the Trilogy DVD, which really doesn't differ much from the album (if at all)
Suggest correction
Creating personal tab
Creating personal tab
You can edit any tab online and save it as your Personal.

You can edit, replace or remove any tab part or add personal notes – all changes will be seen only by you.

Personal tabs can be accessed anytime from any device, even offline.
Learn more »
Give kudos to tab author, rate the tab!
1 2 3 4 5
comments
print report bad tab
1 comment total.
0 reply
Levitt8 10 Jun 02, 2015 07:54 AM

It's close but not exact.

guest
You may want to rate the tab now too:
select rating
Wanna post a correction for this tab? Suggest correction