Oops, an error
Loading. Please wait.

Plainsong bass

version 2
version 2

Whole song

  • Some elements were borrowed from a tab of this son... Show more

Interactive

13 views 9 this week
no commentswrite comment
1 2 3 4 5
3 more votes to show rating
add to favorites
×
Save as Personal and add changes to this tab that will be seen only by you. Learn more ›
×
You can save this tab as Personal to edit and correct it or add notes. All changes will be seen only by you. Learn more »
launch autoscroll
font size
0
reset
guitar tuner
edit
Autoscroll
slow
fast
+/-
esc
set tempo
stop
About this tab version
Some elements were borrowed from a tab of this song published on xguitar.com, but most of the organization and the individual notes were corrected and perfected for this tab. Was this info helpful? Yes No
1st Bass Part: Lead Bass

[Intro/Verse/Chorus] 
(Repeated for whole song)
G|--------|--------|--------|--------------|
D|--------|--------|--------|--------------|
A|-3---8--|-3---8--|-3---8--|-10---12--15/-|
E|--------|--------|--------|--------------|

[2nd Bass Part: Guitar Overlay Bass]

[Pre-Verse] 
(Starts at 1:30. Plays simultaneously with lead guitar)
G|-7/9--9--7--7--7--14--14--14--12-|
D|---------------------------------|
A|---------------------------------|
E|---------------------------------|

G|-7/9--9--7--7--7--14--14--14--12-|
D|---------------------------------|
A|---------------------------------|
E|---------------------------------|

G|-7/9--9--7--7--7--14--14--14--12-|
D|---------------------------------|
A|---------------------------------|
E|---------------------------------|
                                         
G|-10--10--10/12--14--5--5--5/7-|
D|------------------------------|
A|------------------------------|
E|------------------------------|

G|-7/9--9--7--7--7--14--14--14--12-|
D|---------------------------------|
A|---------------------------------|
E|---------------------------------|

G|-7/9--9--7--7--7--14--14--14--12-|
D|---------------------------------|
A|---------------------------------|
E|---------------------------------|

G|-7/9--9--7--7--7--14--14--14--12-|
D|---------------------------------|
A|---------------------------------|
E|---------------------------------|
                                         
G|-10--10--10/12--14--5--5--5/7-|
D|------------------------------|
A|------------------------------|
E|------------------------------|

G|-7/9--9\--0-2-2---2/5--5/7--7-|
D|------------------------------|
A|------------------------------|
E|------------------------------|

G|-7/9--9\--0-2-2---2/5--5/7--7-|
D|------------------------------|
A|------------------------------|
E|------------------------------|

G|-7/9--9\--0-2-2---2/5--5/7--7-|
D|------------------------------|
A|------------------------------|
E|------------------------------|

G|-10--10--10/12--14--5--5--5/7--7--5-5-|
D|--------------------------------------|
A|--------------------------------------|
E|--------------------------------------|

(Rest during Verse)

[Post-Verse] 
(Starts at 3:43)
G|-7/9--9--7--7--7--14--14--14--12-|
D|---------------------------------|
A|---------------------------------|
E|---------------------------------|

G|-7/9--9--7--7--7--14--14--14--12-|
D|---------------------------------|
A|---------------------------------|
E|---------------------------------|

G|-7/9--9--7--7--7--14--14--14--12-|
D|---------------------------------|
A|---------------------------------|
E|---------------------------------|
                                         
G|-10--10--10/12--14--5--5--5/7-|
D|------------------------------|
A|------------------------------|
E|------------------------------|

G|-7/9--9--7--7--7--14--14--14--12-|
D|---------------------------------|
A|---------------------------------|
E|---------------------------------|

G|-7/9--9--7--7--7--14--14--14--12-|
D|---------------------------------|
A|---------------------------------|
E|---------------------------------|

G|-7/9--9--7--7--7--14--14--14--12-|
D|---------------------------------|
A|---------------------------------|
E|---------------------------------|
                                         
G|-10--10--10/12--14--5--5--5/7-|
D|------------------------------|
A|------------------------------|
E|------------------------------|

G|-7/9--9\--0-2-2---2/5--5/7--7-|
D|------------------------------|
A|------------------------------|
E|------------------------------|

G|-7/9--9\--0-2-2---2/5--5/7--7-|
D|------------------------------|
A|------------------------------|
E|------------------------------|

G|-7/9--9\--0-2-2---2/5--5/7--7-|
D|------------------------------|
A|------------------------------|
E|------------------------------|

G|-10--10--10/12--14--5--5--5/7--7--5-5-|
D|--------------------------------------|
A|--------------------------------------|
E|--------------------------------------|

[Outro]
G|-5p4----------------------------|
D|------5---2--3--2---------------|
A|--------------------3-3-3--5--0-|
E|--------------------------------|


************************************

| /  Slide up
| \  Slide down
| p  Pull-off

************************************

            
            
Suggest correction
Creating personal tab
Creating personal tab
You can edit any tab online and save it as your Personal.

You can edit, replace or remove any tab part or add personal notes – all changes will be seen only by you.

Personal tabs can be accessed anytime from any device, even offline.
Learn more »
Give kudos to tab author, rate the tab!
1 2 3 4 5
comments
print report bad tab
guest
You may want to rate the tab now too:
select rating
Wanna post a correction for this tab? Suggest correction