Oops, an error
Loading. Please wait.

Pornography Bass Tab

version 1
version 1

Album

Whole song

2,896 views 18 this week
1 commentread comment
1 2 3 4 5
please rate
add to favorites
launch autoscroll
font size
0
reset
guitar tuner
Tab Pro tools
  • play this tab
  • loop segment
  • change instrument
  • show fretboard
  • metronome
×
Best way to learn
"Pornography"
Autoscroll
slow
fast
+/-
esc
set tempo
stop
Difficulty
novice
The Cure
"Pornography"
Bass Tab's
 
"One Hundred Years"
 
|-----------------|---------|-------|----------|-------|---------|-------|
|-----------------|---------|-------|----------|-------|---------|-------|
|-----------------|---------|-------|-----0----|-------|---------|-------|
|----5--7----8----|----8----|--7----|-------7--|--8----|----8----|--7----|


"A Short Term Effect"
 
|----------------------------------------------------------------------|
|----------------------------------------------------------------------|
|-5-5-5-5-5-7-7-7-3-3-3-3-3-5-5-5----------------------------3-3-3-----|
|----------------------------------3-3-3-3-3-5-5-5-1-1-1-1-1-----------|

|---------------------------------- |-------------|
|---------------------------------- |--REPEAT-----|
|-1-1-1-1-1-1-1-1-3-3-3-3-3-3-3-3-|-two-more------|
|---------------------------------- |--times------|


"The Hanging Garden"
 
|---|
|---|
|-5-|
|---|

|--------------------------------------------|
|-------------------------------5-5-5--7-7-7-|
|-5--5-5-5-5--5-5-5-5-5--3-3-3---------------|
|--------------------------------------------|

|---------------------------------------------------|
|---------------------------------------------------|
|-5-5-5-5-5-5-5-5-5-5--8-8-8-8-8--10-10-10-10-10-10-|
|---------------------------------------------------|
 
"Siamese Twins"
 
|--------------------------------------------------------------------------|
|-------------------3----3-3-3-3-3-3-------------------3----3-3-3-3-3-3----|
|-0----0-0-0-0-0-0-------------------5----5-5-5-5-5-5----------------------|
|--------------------------------------------------------------------------|
 
"The Figurehead"
 
 |--------------------------------------------------------------------|
 |--------------------------------------------------------------------|
 |-3-3-3-3-3-3-3-3--1-1-1-1-1-1-1-1-----------------------------------|
 |-----------------------------------1-1-1-1-1-1-1-1--4-4-4-4-4-4-4-4-|
 |----------------------------------|
 |----------------------------------|
 |----------------------------------|
 |-8-8-8-8-8-8-8-8--2-2-2-2-2-2-2-2-|
 |------------------------------------------|
 |------------------------------------------|
 |------------------------------------------|
 |-11-11-11-11-11-11-11-11--2-2-2-2-2-2-2-2-|


"A Strange Day"
 
|---------------------------------------------------------------------|
|---------------------------------------------------------------------|
|-0-0---0-0-0---0-2-2---2-2-2-3-2-------------------------------------|
|----------------------------------3-3---3-3-3---3-3-3---3-3-3-3-3----|

|---------------------------------------------------------------------|
|---------------------------------------------------------------------|
| -0-0---0-0-0---0-2-2---2-2-2-3-2-----------------------------3-2----|
|----------------------------------3-3---3-3-3---3-3-3---3-3-3--------|

| ---------------------------------------------------------------------|
| ---------------------------------------------------------------------|
|------------------------------3-2------------------------------3-2----|
| -1-1---1-1-1---1-1-1---1-1-1-----3-3---3-3-3---3-3-3---3-3-3---------|

| ---------------------------------------------------------------------|
| ---------------------------------------------------------------------|
|------------------------------3-2------------------------------3-2----|
| -0-0---0-0-0---0-0-0---0-0-0-----1-1---1-1-1---1-1-1---1-1-1---------|


"Cold"
 
|-15-15-15-17-17-15-15-|
|----------------------|
|----------------------|
|----------------------|

|----------------------------------|
|-16-16-16-18-18-16-16-15/13-13-15-|
|----------------------------------|
|----------------------------------|


"Pornography"
 
|---------------------------------------------------------|
|--0-0-00-0-000-------------------------------------------|
|----------------1-1-11-1-111-0-0-00-0-000----------------|
|--------------------------------------------3-3-33-3-333-|

|---------------------------|----------------------------|
|---------------------------|----------------------------|
|---------------------------|----------------------------|
|-1-1-11-1-111-3-3-33-3-333-|-1-1-11-1-11-1-0-0-00-0-000-|

|------------------------------------------------------|
|-0-0-00-0-000-2-2-22-2-222----------------------------|
|---------------------------1-1-11-1-111-1-1-11-1-111--|
|------------------------------------------------------|
comments
We did not receive enough feedback on this tab! Please rate:
print report bad tab
1 2 3 4 5
1 comment total.
0 reply
dreadbone wrote on August 27 2013, 02:51 pm

In The Figurehead 8th fret can be replaced by 3rd fret on A string as well as 11th on E can be replaced by 6th fret on A string. This will make it a lot easier to play.

I want to post or [tab]
guest
You may want to rate the tab now too:
select rating
Please do not post tabs as comments. Select "correction" instead!