Oops, an error
Loading. Please wait.

Snow In Summer intro tab

version 1
version 1

Intro

Interactive

422 views 1 this week
no commentswrite comment
1 2 3 4 5
2 more votes to show rating
add to favorites
×
Save as Personal and add changes to this tab that will be seen only by you. Learn more ›
×
You can save this tab as Personal to edit and correct it or add notes. All changes will be seen only by you. Learn more »
launch autoscroll
font size
0
reset
how to read this tab
guitar tuner
edit
Autoscroll
slow
fast
+/-
esc
set tempo
stop
-------------------------------------------------------------------------------
                           Snow in Summer - The Cure
-------------------------------------------------------------------------------
Tabbed by: Gallagher2006

Tuning: Standard

Robert Smiths guitar line: an A F#m E progression Listen to the song for the timing, and 
the second part of the chords fast

e|------------------0-----|
B|-2-------2--------2-----|
G|-2---4---2--------2-----|
D|-2---2---2--x3----2-----|
A|-0---0---0--------0-----|
E|------------------------|


e|---------------------------------------2--2-2-2-2-2-2---2--2---0-0-0---|
B|---------------------------------------2--2-2-2-2-2-2---2--2---0-0-0---|
G|-2--4--4---2----2---4-4-4-4-4---2--2---2--2-2-2-2-2-2---2--2---1-1-1---|
D|-2--2--2---2----2---2-2-2-2-2---2--2---4--4-4-4-4-4-4---4--4---2-2-2---|
A|-0--0--0---0----0---0-0-0-0-0---0--0---4--4-4-4-4-4-4---4--4---2-2-2---|
E|---------------------------------------------------------------0-0-0---|

Porls guitar line...

e|---------------------------------------------|
B|---------------------------------------------|
G|-9--9--9-9---9-9-9-9-9-7-6------9------9-9-9-|
D|---------------------------7/9----7/9--------|
A|---------------------------------------------|
E|---------------------------------------------|


Chorus Chords:

e|-2--2--2--2-2--0-0-0-0-0-0-0-0-0-------------|
B|-3--3--3--3-3--2-2-2-2-2-2-2-2-2-------------|
G|-2--2--2--2-2--3-3-3-3-3-3-2-2-2-------------|
D|-0--0--0--0-0--4-4-4-4-4-4-2-2-2-------------|
A|---------------------------0-0-0-------------|
E|---------------------------------------------|

Porl has a little riff played over the Bm...

e|---------------------------------------------|
B|---------------------------------------------|
G|--12-11--12--11-12--11-9---------------------|
D|---------------------------------------------|
A|---------------------------------------------|
E|---------------------------------------------|

And it then goes back into the opening guitar line, and the song repeats. Easy

Cheers =]
Suggest correction
Creating personal tab
Creating personal tab
You can edit any tab online and save it as your Personal.

You can edit, replace or remove any tab part or add personal notes – all changes will be seen only by you.

Personal tabs can be accessed anytime from any device, even offline.
Learn more »
Give kudos to tab author, rate the tab!
1 2 3 4 5
comments
print report bad tab
guest
You may want to rate the tab now too:
select rating
Wanna post a correction for this tab? Suggest correction