Oops, an error
Loading. Please wait.
We have an official Subway Song tab made by UG professional guitarists. Check out the tab »
×
2,635 views 12 this week
no commentswrite comment
1 2 3 4 5
x 7
add to favorites
×
Save as Personal and add changes to this tab that will be seen only by you. Learn more ›
×
You can save this tab as Personal to edit and correct it or add notes. All changes will be seen only by you. Learn more »
launch autoscroll
font size
0
reset
guitar tuner
edit
Autoscroll
slow
fast
+/-
esc
set tempo
stop
 G:-----------------------------------------------|
 D:--------------6--------------------------------|
 A:--6-8--8--6-8----------------------------------|
 E:-----------------9-9-9-9-8---------------------|

 After the music halts for the footsteps part play the above tune once than
 play this three times before playing the tune above again for the rest of
 the song-

 G:-----------------------------------------------|
 D:-----------------------------------------------|
 A:-----------------------------------------------|
 E:---4--6--6--4-5-6\2-2222-4444------------------|    \ = slide down to

Thanks for looking, I hope you like it.

Now here's the lyrics:

   Midnight in the subway
   She's on her way home
   She tries hard not to run
   But she feels she's not alone
   Echoes of footsteps
   Follow close behind
   But she dare not turn around

   ...turn around...


   ...turn around...

   ...AAAAARRRHHH!!!

            
            
Suggest correction
Creating personal tab
Creating personal tab
You can edit any tab online and save it as your Personal.

You can edit, replace or remove any tab part or add personal notes – all changes will be seen only by you.

Personal tabs can be accessed anytime from any device, even offline.
Learn more »
comments
print report bad tab
guest
You may want to rate the tab now too:
select rating
Wanna post a correction for this tab? Suggest correction