Oops, an error
Loading. Please wait.

The Caterpillar bass

version 1
version 1

Whole song

Interactive

4,134 views 3 this week
1 commentread comment
1 2 3 4 5
x 3
add to favorites
×
Save as Personal and add changes to this tab that will be seen only by you. Learn more ›
×
You can save this tab as Personal to edit and correct it or add notes. All changes will be seen only by you. Learn more »
launch autoscroll
font size
0
reset
guitar tuner
edit
Autoscroll
slow
fast
+/-
esc
set tempo
stop
Author
My sister and I finaly figured this out!  I believe I am the first person to
 submit an accurete bass tab for this song!!!

Intro:
x3
G---------------------------------|
D---------------------------------|
A-----------------2-2-2-2-2-2-2-2-|
E-2-2-2-2-2-2-2-2-----------------|

4th time:
G---------------------------------|
D---------------------------------|
A-----------------/14-14-14-14-14-|
E-2-2-2-2-2-2-2-2-----------------|


Main riff:
G--------------------------|
D--------------------------|
A-------7-9---------2-4-0--|
E-7-7-9-----7-2-2-2--------|


"Dust my lemon lies"
G----------------------|
D----------------0-4-0-|
A-----0-4-0--2-2-------|
E-2-2------------------|

Instrumental:
Play intro

            
            
Suggest correction
Creating personal tab
Creating personal tab
You can edit any tab online and save it as your Personal.

You can edit, replace or remove any tab part or add personal notes – all changes will be seen only by you.

Personal tabs can be accessed anytime from any device, even offline.
Learn more »
Give kudos to tab author, rate the tab!
1 2 3 4 5
comments
print report bad tab
1 comment total.
+1 reply
Levitt8 10 Dec 10, 2014 08:17 PM

Clearly wrong. This tab shows no relation to the song it purports to be. The fact that I have to write 20 words to confirm this is absurd.

guest
You may want to rate the tab now too:
select rating
Wanna post a correction for this tab? Suggest correction