Oops, an error
Loading. Please wait.

The Drowning Man bass

version 2
version 2

Whole song

Interactive

1,125 views 12 this week
no commentswrite comment
1 2 3 4 5
x 5
add to favorites
×
Save as Personal and add changes to this tab that will be seen only by you. Learn more ›
×
You can save this tab as Personal to edit and correct it or add notes. All changes will be seen only by you. Learn more »
launch autoscroll
font size
0
reset
guitar tuner
edit
Autoscroll
slow
fast
+/-
esc
set tempo
stop
The Drowning Man by The Cure
Bass tabs by IncurableNikki
IncurableNikki@yahoo.com

The asterisk (*) means to repeat the note. Enjoy!


G-|19*******18******\15**************/|19*******18******\15***************\|
D-|-----------------------------------|------------------------------------|
A-|-----------------------------------|------------------------------------|
E-|-----------------------------------|------------------------------------|


G-|12*******11******8888888888888888|12*******11******8888888888888888|
D-|---------------------------------|---------------------------------|
A-|---------------------------------|---------------------------------|
E-|---------------------------------|---------------------------------|


G-|7777777766666666----------------|7777777766666666----------------|
D-|----------------8888888888888888|----------------8888888888888888|
A-|--------------------------------|--------------------------------|
E-|--------------------------------|--------------------------------|


G-|--------------------------------|--------------------------------|
D-|5555555544444444----------------|5555555544444444----------------|
A-|----------------6666666666666666|----------------6666666666666666|
E-|--------------------------------|--------------------------------|

(she stands 12 feet…)
G-|---------------------------------|--------------------------------|
D-|---------------------------------|--------------------------------|
A-|5555555544444444\111111111111111/|555555554444444\1111111111111111|
E-|---------------------------------|--------------------------------|

(one by one her senses die)
G-|---------------------------------|---------------------------------|
D-|---------------------------------|---------------------------------|
A-|---------------2/666666666666666\|---------------2/6666666666666666|
E-|333333332222222------------------|388888882222222------------------|

(leave her)
G-|---------------------------------|--------------------------------|
D-|---------------------------------|--------------------------------|
A-|5555555544444444\111111111111111/|555555554444444\1111111111111111|
E-|---------------------------------|--------------------------------|


G-|---------------------------------|---------------------------------|
D-|---------------------------------|---------------------------------|
A-|---------------2/666666666666666\|---------------2/6666666666666666|
E-|333333332222222------------------|388888882222222------------------|

(starting at the violent sound)
G-|---------------------------------|--------------------------------|
D-|---------------------------------|--------------------------------|
A-|5555555544444444\111111111111111/|555555554444444\1111111111111111|
E-|---------------------------------|--------------------------------|

(drowns her at its ease)
G-|---------------------------------|---------------------------------|
D-|---------------------------------|---------------------------------|
A-|---------------2/666666666666666\|---------------2/6666666666666666|
E-|333333332222222------------------|388888882222222------------------|


G-|---------------------------------|--------------------------------|
D-|---------------------------------|--------------------------------|
A-|5555555544444444\111111111111111/|555555554444444\1111111111111111|
E-|---------------------------------|--------------------------------|


G-|---------------------------------|---------------------------------|
D-|---------------------------------|---------------------------------|
A-|---------------2/666666666666666\|---------------2/6666666666666666|
E-|333333332222222------------------|388888882222222------------------|

I would have left the world all bleeding
G-|19*******18******\15**************/|19*******18******\15***************\|
D-|-----------------------------------|------------------------------------|
A-|-----------------------------------|------------------------------------|
E-|-----------------------------------|------------------------------------|

Everything was true…
G-|12*******11******8888888888888888|12*******11******8888888888888888|
D-|---------------------------------|---------------------------------|
A-|---------------------------------|---------------------------------|
E-|---------------------------------|---------------------------------|

Words all left me…
G-|7777777766666666----------------|7777777766666666----------------|
D-|----------------8888888888888888|----------------888888888888888\|
A-|--------------------------------|--------------------------------|
E-|--------------------------------|--------------------------------|

                   Dreaming like the drowning man…
G-|--------------------------------|--------------------------------|
D-|5555555544444444----------------|5555555544444444----------------|
A-|----------------6666666666666666|----------------6666666666666666|
E-|--------------------------------|--------------------------------|


G-|---------------------------------|--------------------------------|
D-|---------------------------------|--------------------------------|
A-|5555555544444444\111111111111111/|555555554444444\1111111111111111|
E-|---------------------------------|--------------------------------|


G-|---------------------------------|---------------------------------|
D-|---------------------------------|---------------------------------|
A-|---------------2/666666666666666\|---------------2/6666666666666666|
E-|333333332222222------------------|333333332222222------------------|


G-|---------------------------------|---------------------------------|
D-|------------------------88--88-8-|---------------------------------|
A-|---------------2/6666666--66--6-6|---------------2/666666666666666\|
E-|333333332222222------------------|333333332222222------------------|


G-|---------------------------------|
D-|---------------------------------|
A-|---------------2/6666666666666666|
E-|333333332222222------------------|



Suggest correction
Creating personal tab
Creating personal tab
You can edit any tab online and save it as your Personal.

You can edit, replace or remove any tab part or add personal notes – all changes will be seen only by you.

Personal tabs can be accessed anytime from any device, even offline.
Learn more »
comments
print report bad tab
guest
You may want to rate the tab now too:
select rating
Wanna post a correction for this tab? Suggest correction