Oops, an error
Loading. Please wait.

The End Of The World tab

version 3
version 3

Whole song

Interactive

4,635 views 1 this week
1 commentread comment
1 2 3 4 5
1 last vote to show rating
add to favorites
×
Save as Personal and add changes to this tab that will be seen only by you. Learn more ›
×
You can save this tab as Personal to edit and correct it or add notes. All changes will be seen only by you. Learn more »
launch autoscroll
font size
0
reset
how to read this tab
guitar tuner
edit
Autoscroll
slow
fast
+/-
esc
set tempo
stop
Author
The Cure - The End of the World
tabbed by Victor

Well for the verse I've figured out this:

Part 1) Verse

-----D5-----------------B5----------------F#5------------------G5-------

e-----------------|-----------------|-----------------|-----------------|
B-----------------|-----------------|-----------------|-----------------|
G-7-7-7-7-7-7-7-7-|-4-4-4-4-4-4-4-4-|-----------------|-----------------|
D-7-7-7-7-7-7-7-7-|-4-4-4-4-4-4-4-4-|-4-4-4-4-4-4-4-4-|-5-5-5-5-5-5-5-5-|
A-5-5-5-5-5-5-5-5-|-2-2-2-2-2-2-2-2-|-4-4-4-4-4-4-4-4-|-5-5-5-5-5-5-5-5-|
E-----------------|-----------------|-2-2-2-2-2-2-2-2-|-3-3-3-3-3-3-3-3-|


----------------------
Part 2) End of Verse |
----------------------

when he sings: "all you wanted" He plays something like that:

D5 (x577xx), E'5 (x799xx) F'#5(x 9 11 11 xx), G'5 (x 10 12 12 xx)


--------
Part 3 |
--------

and then:

...love you more

----G5-------------------E5---------


e-----------------|-----------------|
B-----------------|-----------------|
G-----------------|-----------------|
D-5-5-5-5-5-5-5-5-|-2-2-2-2-2-2-2-2-| Play this part 2 times
A-5-5-5-5-5-5-5-5-|-2-2-2-2-2-2-2-2-|
E-3-3-3-3-3-3-3-3-|-0-0-0-0-0-0-0-0-|



You want me to cry...

------G5-----------------A5----------

e-----------------|-----------------|
B-----------------|-----------------|
G-----------------|-----------------|
D-5-5-5-5-5-5-5-5-|-7-7-7-7-7-7-7-7-| Play this part 3 times
A-5-5-5-5-5-5-5-5-|-7-7-7-7-7-7-7-7-|
E-3-3-3-3-3-3-3-3-|-5-5-5-5-5-5-5-5-|



Back to Verse (Part 1) without Part 2


After Verse comes Part 3


"You couldn't loooooooooooooooooove ... me more..." (while keyboard plays solo) It's 
1 again


-----D5-----------------B5----------------F#5------------------G5-------

e-----------------|-----------------|-----------------|-----------------|
B-----------------|-----------------|-----------------|-----------------|
G-7-7-7-7-7-7-7-7-|-4-4-4-4-4-4-4-4-|-----------------|-----------------| 1x
D-7-7-7-7-7-7-7-7-|-4-4-4-4-4-4-4-4-|-4-4-4-4-4-4-4-4-|-5-5-5-5-5-5-5-5-|
A-5-5-5-5-5-5-5-5-|-2-2-2-2-2-2-2-2-|-4-4-4-4-4-4-4-4-|-5-5-5-5-5-5-5-5-|
E-----------------|-----------------|-2-2-2-2-2-2-2-2-|-3-3-3-3-3-3-3-3-|



and then Part 2, 2 times:


D5 (x577xx), E'5(x799xx), F'#5(x 9 11 11 xx), G'5(x 10 12 12 xx)



after the keyboard solo:

"I couldn't love you more, you want me to lie..."


------G5-----------------A5----------

e-----------------|-----------------|
B-----------------|-----------------|
G-----------------|-----------------|
D-5-5-5-5-5-5-5-5-|-7-7-7-7-7-7-7-7-| Play this part 3 times
A-5-5-5-5-5-5-5-5-|-7-7-7-7-7-7-7-7-|
E-3-3-3-3-3-3-3-3-|-5-5-5-5-5-5-5-5-|


"wwwwwwwhooooooooooooooooouuuuuuuuoooooooooooo"

e-----------------|-----------------|
B-----------------|-----------------|
G-----------------|-----------------|
D-9-9-9-9-9-9-9-9-|-5-5-5-5-5-5-5-5-| Play this part 2 times
A-9-9-9-9-9-9-9-9-|-5-5-5-5-5-5-5-5-|
E-7-7-7-7-7-7-7-7-|-3-3-3-3-3-3-3-3-|


"Maybe we didn't understand"

e-----------------|-----------------|
B-----------------|-----------------|
G-----------------|-----------------|
D-4-4-4-4-4-4-4-4-|-7-7-7-7-7-7-7-7-| Play this part 2 times
A-4-4-4-4-4-4-4-4-|-7-7-7-7-7-7-7-7-|
E-2-2-2-2-2-2-2-2-|-5-5-5-5-5-5-5-5-|


"wwwwwwwhooooooooooooooooouuuuuuuuoooooooooooo"


e-----------------|-----------------|
B-----------------|-----------------|
G-----------------|-----------------|
D-9-9-9-9-9-9-9-9-|-5-5-5-5-5-5-5-5-| Play this part 2 times
A-9-9-9-9-9-9-9-9-|-5-5-5-5-5-5-5-5-|
E-7-7-7-7-7-7-7-7-|-3-3-3-3-3-3-3-3-|


"Maybe we didn't understand"

e-----------------|-----------------|
B-----------------|-----------------|
G-----------------|-----------------|
D-4-4-4-4-4-4-4-4-|-7-7-7-7-7-7-7-7-| Play this part 2 times
A-4-4-4-4-4-4-4-4-|-7-7-7-7-7-7-7-7-|
E-2-2-2-2-2-2-2-2-|-5-5-5-5-5-5-5-5-|


Back to verse:


Part 1) Verse

-----D5-----------------B5----------------F#5------------------G5-------

e-----------------|-----------------|-----------------|-----------------|
B-----------------|-----------------|-----------------|-----------------|
G-7-7-7-7-7-7-7-7-|-4-4-4-4-4-4-4-4-|-----------------|-----------------| 1x
D-7-7-7-7-7-7-7-7-|-4-4-4-4-4-4-4-4-|-4-4-4-4-4-4-4-4-|-5-5-5-5-5-5-5-5-|
A-5-5-5-5-5-5-5-5-|-2-2-2-2-2-2-2-2-|-4-4-4-4-4-4-4-4-|-5-5-5-5-5-5-5-5-|
E-----------------|-----------------|-2-2-2-2-2-2-2-2-|-3-3-3-3-3-3-3-3-|



and then:

...love you more

----G5-------------------E5---------

e-----------------|-----------------|
B-----------------|-----------------|
G-----------------|-----------------|Play this part until the song ends,
D-2-2-2-2-2-2-2-2-|-5-5-5-5-5-5-5-5-| the final chord is G5(xxx355)
A-2-2-2-2-2-2-2-2-|-5-5-5-5-5-5-5-5-|
E-0-0-0-0-0-0-0-0-|-3-3-3-3-3-3-3-3-|

            
            
Suggest correction
Creating personal tab
Creating personal tab
You can edit any tab online and save it as your Personal.

You can edit, replace or remove any tab part or add personal notes – all changes will be seen only by you.

Personal tabs can be accessed anytime from any device, even offline.
Learn more »
Give kudos to tab author, rate the tab!
1 2 3 4 5
comments
print report bad tab
1 comment total.
0 reply
Tiadoro 383 Dec 18, 2008 04:32 AM

Part 3
and then:

...love you more

----G5-------------------E5---------

E-3-3-3-3-3-3-3-3-|-0-0-0-0-0-0-0-0-|
A-5-5-5-5-5-5-5-5-|-2-2-2-2-2-2-2-2-|
D-5-5-5-5-5-5-5-5-|-2-2-2-2-2-2-2-2-| Play this part 2 times
G-----------------|-----------------|
B-----------------|-----------------|
e-----------------|-----------------|

Is wrong.

Actually he plays:

...love you more

----G5-------------------E5---------

E-0-0-0-0-0-0-0-0-|-3-3-3-3-3-3-3-3-|
A-2-2-2-2-2-2-2-2-|-5-5-5-5-5-5-5-5-|
D-2-2-2-2-2-2-2-2-|-5-5-5-5-5-5-5-5-|
G-----------------|-----------------|
B-----------------|-----------------|
e-----------------|-----------------

guest
You may want to rate the tab now too:
select rating
Wanna post a correction for this tab? Suggest correction