Oops, an error
Loading. Please wait.

The Head On The Door Bass Tab

2,392 views 3 this week
1 commentread comment
1 2 3 4 5
excellent!
x 1
add to favorites
launch autoscroll
font size
0
reset
guitar tuner
Tab Pro tools
  • play this tab
  • loop segment
  • change instrument
  • show fretboard
  • metronome
Autoscroll
slow
fast
+/-
esc
set tempo
stop
Difficulty
intermediate
The Cure - The Head On The Door
1985
 
   1. "Inbetween Days" – 2:57
   2. "Kyoto Song" – 4:16
   3. "The Blood" – 3:43
   4. "Six Different Ways" – 3:18
   5. "Push" – 4:31
   6. "The Baby Screams" – 3:44
   7. "Close to Me" – 3:23
   8. "A Night Like This" – 4:16
   9. "Screw" – 2:38
  10. "Sinking" – 4:57


Inbetween Days
Transcribed by: Damian Pamminger (TwitcheD_85@hotmail.com)

Fig. 1 (Intro)
|------------------------------------------------------------------------|
|------------------------------------------------------------------------|
|-------------5--5--5-5-5-4-4-------------5--5--5-5-5-7-7----------------|
|-5--5--5-5-5-----------------5--5--5-5-5-----------------5--5--5-5-5----|

|------------7-6------------------------------------|
|---------------------------------------------------|
|-5--5--5-5------4--------------5--5---5-5-5-7-7----|
| ------------------5--5--5-5-5---------------------|

Fig. 2
|-------------------------------------------------------------|
|-------------------------------------------------------------|
| -------------5--5--5-5-5-7-7-------------5--5--5-5-5-4-4----|
|-5--5--5-5-5------------------5--5--5-5-5--------------------|

Fig. 3
|-------------------------------------------------------------|
|-------------------------------------------------------------|
|-2--2--2-2-2-----------------2--2--2-2-2---------------------|
|-------------0--0--0-0-0-0-0-------------0--0--0-0-0-0-0-----|

End
|---------------------------------------------------------|
|---------------------------------------------------------|
| -------------5--5--5-5-5-7-7-------------5--------------|
|-5--5--5-5-5------------------5--5--5-5-5----------------|


Kyoto Song

Intro (bass only)
G|------------------------|
D|------------------------|
A|2-2---2-2---2-2---2-2---|
E|------------------------|

Then guitar comes in...
G|----------------------------------------------|
D|----------------------------------------------|
A|2-2---2-2---2-2---2-2---------------2-2---2-5~|
E|------------------------5-5---2-2-------------|

And thats the verse as well...

Then theres the "Tells me how it feels to be neeeew..."
G|------------------------|
D|------------------------|
A|------------2-2---2-2---|
E|0-0---0-0---------------| x2

The Blood
Tabbed by: sTRaNge

main thing (intro, verse etc)
G|----------------------|
D|----------------------|
A|----------------------|
E|22222222-3\22222222-0/|

then there's the "i am paralysed by the blood of christ" bit
which goes something like:
G|-------------------------------------------|
D|-------------------------------------------|
A|--------------------2----------------------|
E|33333333-3/55555555--22222222-3\22222222-0/|

Six Different Ways
Tabbed by: sTRaNge

intro
G|--------|
D|--------|
A|33-3-33-|
E|--------|x5

verse
G|--------|
D|--------|
A|33-22---|
E|-----00-|x4

then
G|--------|
D|--------|
A|--------|
E|00-0-11-|x4

Push
Transcribed by: Damian Pamminger (TwitcheD_85@hotmail.com)

Fig. 1 (2x)
|----------------------------------------2-2-2-2-2-2----|
| ------------------------------------------------------|
|-2-2----2-2-/7-7----7-7-5-5----5-5-0-0-----------------|
| ------------------------------------------------------|

Fig. 2 (2x)
| -------------------------------------------------------------------------|
|----5----4-----2-2-2-2-2-2-2----5-----4------2-2-2-2-2-2------------------|
| ----------------------------------------------------------345-5--345-5---|
|-3----2----0------------------3----2-----0--------------------------------|

| -------------9-9-\----------------------------9-9-\---|
| ------------------------------------------------------|
|-345-5--5-/7-------345-5--345-5--345-5--5-/7-----------|
| ------------------------------------------------------|

Fig. 3 (2x)
| ---------------------------------|--------| ------------------------------------|
| ---------------------------9-9-\-|-REPEAT | ----------------------------7-7-\---|
| ---------------------------------|--------| ------------------------------------|
| 345-5--345-5--345-5--5-/7-------|--------|-123-3--123-3--123-3--3-/5------------|

|--------|
|-REPEAT-|
|--------|
|--------|

Fig. 4 (2x)
|----------------------------9-9-\-|--------|------------------------------------|
|----------------------------------|-REPEAT-|----------------------------9-9-\---|
|-345-5--345-5--345-5--5-/7-------|--------|-------------------------------------|
|----------------------------------|--------|-345-5--345-5--345-5--5-/7----------|

|--------|
|-REPEAT-|
|--------|
|--------|

Fig. 5 (2x)
|-----------------------------------------------------------11-11-\---|
|----------------------------7-7--------------------------------------|
|--------------------------------567-7--567-7--567-7--7-/9------------|
|-123-3--123-3--123-3--3-/5-------------------------------------------|

Fig. 1 (4x)
Fig. 2 (2x)
Fig. 3 (2x)
Fig, 4 (2x)
Fig. 5 (2x)
Fig. 1 (3x)

End:
|-------------------------------|
|-------------------------------|
|-2-2----2-2-/7-7----7-7-5-5----|
|-------------------------------|

The Baby Screams
Tabbed by: sTRaNge

intro/main thing
G|-----------------------------|
D|---------------------5555-55-|
A|555-55\3333-33/8888-88-------|
E|-----------------------------|

verse
G|------------------------------|
D|------------------------------|
A|555-55\3333-33/8888-88\3333-33|
E|------------------------------|

bridge type thing
G|-----------------|
D|-----------------|
A|-----------------|
E|5-55-1-13-33-3-33|

Close To Me
Transcribed by Luís Graça

Pattern 1
G|-----------------------------------------------------------------------------------|
D|-----------------1--1--------------------------------------------------------------|
A|---2--2--2--2---------2--2--2--2--4--4-------------------2--2----------------------|
E|---------------------------------------------4--4--4--4--------2--2--2--2--0--0----|

Pattern 2
G|---------------------------------------------------------------------------------|
D|----------------1--1---------------1--1----------------1--1---------------1--1---|
A|-------------------------------------------2--2--2--2---------2--2--2--2---------|
E|---0--0--0--0--------0--0--0--0--------------------------------------------------|

A Night Like This
Transcribed by Luís Graça

Pattern 1
G|--------------------------------------------|
D|--------------------------------------------|
A|-------------5--5--7------------5--5--7---|
E|---2--2--0-------------7--7--5------------|

Pattern 2
G|-------------------------------------------------------------------|
D|-------------------------------------------------------------------|
A|---4--4--2--2--4--4--2--2--4--4--2--2--4--4--2--2------------------|
E|---------------------------------------------------4--4--0--0--0---|

Pattern 3
G|--------------------------------------|
D|-----------------------4--4--4--6--7--|
A|---5--5-----7--7--4-------------------|
E|----------7---------------------------|


Pattern 1 - X8
Pattern 2 - X1
Pattern 1 - X6
Pattern 2 - X1
Pattern 3 - X2
Pattern 1 - X4
Pattern 2 - X1
Pattern 3 - X4

Screw
Transcribed by: Damian Pamminger (TwitcheD_85@hotmail.com)

Fig. 1a (1x)
| ----------------------------------------7-\---------------------------------|
| -------------------5-7--5-7--5-7--5-7----------------------------5-7--5-7---|
| ----------------------------------------------------------------------------|
| -3---1--0---1--3-----------------------------3---1--0---0-1--3--------------|

| -----------------|
|-5-7--5-7--5-\----|
| -----------------|
| -----------------|

Fig. 1b (4x)
|----------------------------------------------7-\---------------------------|
|-------------------------5-7--5-7--5-7--5-7---------------------------------|
| ---------------------------------------------------------------------------|
|-3-3---1--0--0-1-1--3------------------------------3-3---1--0--0-1-1--3-----|

|-----------------------------|
|-5-7--5-7--5-7--5-7--5-\-----|
| ----------------------------|
| ----------------------------|

Fig. 2 (1x)
|------------------------------------------------------12-\---------------|
| ------------------------10-12--10-12--10-12--10-12----------------------|
|-------------------------------------------------------------------------|
|-8-8---6--5--5-6-6--8---------------------------------------8-8---6--5---|

|--------------------------------------------------|
| ------------10-12--10-12--10-12--10-12--10-\-----|
|--------------------------------------------------|
| -5-6-6--8----------------------------------------|

Fig. 1b (1x)

Fig. 3 (4x)
|-----------------------------------------------------------|
|-----------------------------------------------------------|
|-----------------------------------------------------------|
|-3--3-3-1--0--0-1-1--3--3-3-3--3-3-1--0--0-1-1--3--3-3-----|

Fig. 1b (2x)
Fig. 2 (1x)
Fig. 1b (2x)

Fig. 4 (1x)
|----------------------------------------------------------14-\-----------|
| ----------------------------12-14--12-14--12-14--12-14------------------|
|-------------------------------------------------------------------------|
| -10-10---8--7--7-8-8--10---------------------------------------13-13----|

| --------------------------------------------------------------|
|-------------------------15-17--15-17--15-17--15-17--15-\------|
| --------------------------------------------------------------|
| -11--10--10-11-11--13-----------------------------------------|

Fig. 1b (1x)
Fig. 3 (1x)
Fig. 1b (1 1/2x)

End:
|----------------------------------|
|----------------------------------|
|----------------------------------|
|-3-3---1--0--0-1-1--3-------------|

Sinking
incurablenikki@yahoo.com

     (A)
G-|-|----------------|----------------|----------------|----------------|
D-|-|--5544----------|--5544----------|--5544----------|--5544----------|
A-|-|------557--7\---|------557--7\---|------557--7\---|------557--7\---|
E-|3|0--------------3|0--------------3|0--------------3|0--------------3|

   (Ab)
G-|----------------|----------------|----------------|----------------|
D-|--5544----------|--5544----------|--5544----------|--5544557757-520|
A-|------557--7\---|------557--7\---|------557--7\---|----------------|
E-|0--------------3|0--------------3|0--------------3|0---------------|

   (B) chord fingering
G-|----0-------0---|--22002---22002-|----0-------0---|--22002---22002-|
D-|--2---2---2--2-2|----------------|--2---2---2--2-2|----------------|
A-|3--3---3-3-3--3-|0------0-0------|3--3---3-3-3--3-|0------0-0------|
E-|----------------|----------------|----------------|---------------3|

Repeat: A
Repeat: Ab
Repeat: B
Repeat: A x3 (1st verse after two)  
Repeat: Ab
Repeat: B
Repeat: A
Repeat: Ab (2nd verse)
Repeat: B x2 (w/ no E3 at the end both times)

   (C) chord
G-|----------------|--00440---00440-|----------------|--00440---00440-|
D-|----0-------0---|----------------|----0-------0---|----------------|
A-|--2---2---2--2-2|---------------0|--2---2---2--2-2|----------------|
E-|3--3---3-3-3--3-|0------0-0------|3--3---3-3-3--3-|0------0-0------|

   (D)              chord
G-|----------------|----0-------0---|----------------|----0-----------|
D-|0-20-020-020-202|--2---2---2--2-2|0-20-020-020-202|--2---2---2-----|
A-|----------------|3--3---3-3-3--3-|----------------|3--3---3-3-320--|
E-|----------------|----------------|----------------|--------------32|

Repeat: A (x3) to end on E0.

comments
We did not receive enough feedback on this tab! Please rate:
print report bad tab
1 2 3 4 5
1 comment total.
0 reply
swave75 wrote on June 1 2011, 08:47 pm

Thank you for tabbing this!

I want to post or [tab]
guest
You may want to rate the tab now too:
select rating
Please do not post tabs as comments. Select "correction" instead!